E-Chords
Ruby Haunt

Video Dreams(Bass guitar)

Ruby Haunt

roll up this ad to continue

Intro 
G|----------------|----------------|----------------|----------------| (x4) 
D|----------------|----------------|----------------|----------------| 
A|----------------|----------------|----------------|----------------| 
E|-3-3-3-3-3-3-3-3|-5-5-5-5-5-5-5-5|-1-1-1-1-1-1-1-1|-1-1-1-1-1-1-1-1| 

verse 1 
G|----------------|----------------|----------------|----------------| (x4) 
D|----------------|----------------|----------------|----------------| 
A|----------------|----------------|----------------|----------------| 
E|-3-3-3-3-3-3-3-3|-5-5-5-5-5-5-5-5|-1-1-1-1-1-1-1-1|-1-1-1-1-1-1-1-1| 

Chorus 
G|----------------|----------------|----------------|----------------| (x2) 
D|----------------|----------------|----------------|----------------| 
A|----------------|----------------|----------------|----------------| 
E|-3-3-3-3-3-3-3-3|-5-5-5-5-5-5-5-5|-1-1-1-1-1-1-1-1|-1-1-1-1-1-1-1-1| 

verse 2 
G|----------------|----------------|----------------|----------------| (x4) 
D|----------------|----------------|----------------|----------------| 
A|----------------|----------------|----------------|----------------| 
E|-3-3-3-3-3-3-3-3|-5-5-5-5-5-5-5-5|-1-1-1-1-1-1-1-1|-1-1-1-1-1-1-1-1| 

Chorus 
G|----------------|----------------|----------------|----------------| (x4) 
D|----------------|----------------|----------------|----------------| 
A|----------------|----------------|----------------|----------------| 
E|-3-3-3-3-3-3-3-3|-5-5-5-5-5-5-5-5|-1-1-1-1-1-1-1-1|-1-1-1-1-1-1-1-1| 

Narration 
G|----------------|----------------|----------------|----------------| (x2) 
D|----------------|----------------|----------------|----------------| 
A|----------------|----------------|----------------|----------------| 
E|-3-3-3-3-3-3-3-3|-5-5-5-5-5-5-5-5|-1-1-1-1-1-1-1-1|-1-1-1-1-1-1-1-1| 

verse 3 
G|----------------|----------------|----------------|----------------| (x2) 
D|----------------|----------------|----------------|----------------| 
A|----------------|----------------|----------------|----------------| 
E|-3-3-3-3-3-3-3-3|-5-5-5-5-5-5-5-5|-1-1-1-1-1-1-1-1|-1-1-1-1-1-1-1-1| 

Chorus/Bass Outro 
G|----------------|----------------|----------------|----------------| (x4) 
D|----------------|----------------|----------------|----------------| 
A|----------------|----------------|----------------|----------------| 
E|-3-3-3-3-3-3-3-3|-5-5-5-5-5-5-5-5|-1-1-1-1-1-1-1-1|-1-1-1-1-1-1-1-1| 
share this page

See Also: