E-Chords
Ruby Haunt

Strangers(Bass guitar)

Ruby Haunt

roll up this ad to continue

Bass Start - 00:11 

Intro (x2) 
G|----------------|----------------|----------------|-----------------| 
D|----------------|----------------|----------------|-----------------| 
A|-9-9-9-9-9-9-9-9|-7-7-7-7-7-7-7-7|-5-5-5-5-5-5-5-5|-5-5-5-5-5-5-5-5/| 
E|----------------|----------------|----------------|-----------------| 

G|----------------|----------------|----------------|----------------| 
D|----------------|-----------7-7-7|----------------|----------------| 
A|-9-9-9-9-9-9-9-9|-7-7-7-7-7------|-5-5-5-5-5-5-5-5|-5-5-5-5-5-5-5-5| 
E|----------------|----------------|----------------|----------------| 

verse 1/Chorus (x4) 
G|----------------|----------------|----------------|-----------------| 
D|----------------|----------------|----------------|-----------------| 
A|-9-9-9-9-9-9-9-9|-7-7-7-7-7-7-7-7|-5-5-5-5-5-5-5-5|-5-5-5-5-5-5-5-5/| 
E|----------------|----------------|----------------|-----------------| 

G|----------------|----------------|----------------|----------------| 
D|----------------|-----------7-7-7|----------------|----------------| 
A|-9-9-9-9-9-9-9-9|-7-7-7-7-7------|-5-5-5-5-5-5-5-5|-5-5-5-5-5-5-5-5| 
E|----------------|----------------|----------------|----------------| 

(01:47 ~ 02:02) - No Bass Guitar 

verse 2/Chorus/Bass Outro (x6) 
(02:03 ~ ) 
G|----------------|----------------|----------------|-----------------| 
D|----------------|----------------|----------------|-----------------| 
A|-9-9-9-9-9-9-9-9|-7-7-7-7-7-7-7-7|-5-5-5-5-5-5-5-5|-5-5-5-5-5-5-5-5/| 
E|----------------|----------------|----------------|-----------------| 

G|----------------|----------------|----------------|----------------| 
D|----------------|-----------7-7-7|----------------|----------------| 
A|-9-9-9-9-9-9-9-9|-7-7-7-7-7------|-5-5-5-5-5-5-5-5|-5-5-5-5-5-5-5-5| 
E|----------------|----------------|----------------|----------------| 


********************************* 

| / Slide up 

********************************* 
share this page

See Also: