E-Chords
Ratatat

Outro(Bass guitar)

Ratatat

G|---------------|---------------|---------------|---------------|---------------| 
D|---------------|---------------|---------------|---------------|---------------|   
A|-------------6-|-5-----------5-|-4-----------4-|-3-------------|---------------| 
E|---------------|---------------|---------------|--------------1/4---4---4---4/-| 

G|---------------|---------------| 
D|---------------|---------------|  
A|------8--------|-6~~~~~~~~~~---| 
E|/6--------6----|---------------| 

************************************ 

| /   Slide up 

************************************ 

roll up this ad to continue

share this page

See Also: