E-Chords
Postmen

U Wait(Bass guitar)

Postmen

Intro 
Pause 15 bars 
G|----------------|----------------|----------------|----------------|----------------| 
D|----------------|----------------|----------7-----|----------------|----------------| 
A|--------17\-----|5-5-5-5-----3---|5-----5-5---5---|------------3---|7---5---5-----3-| 
E|----------------|--------5-5-----|----------------|5-5---5---5-----|------------5---| 
                                                      
G|----------------|----------------|----------------|----------------| 
D|----------------|----------7-----|----------------|----------------| 
A|5-5-5-5-----3-3-|5-----5-5---5---|------------3---|/7--5---5-----3-| 
E|--------5-5-----|----------------|5-5---5---5-----|------------5---| 
                                                     
Chorus 
G|----------------|----------------|----------------|----------------| 
D|----------------|----------7-----|----------------|----------------| x3 
A|5-5-5-5-----3-3-|5-----5-5---5---|------------3---|/7--5---5-----3-| 
E|--------5-5-----|----------------|5-5---5---5-----|------------5---| 

G|----------------|----------------|----------------|----------------| 
D|----------------|----------7-----|----------------|----------------|  
A|5-5-5-5-----3-3-|5-----5-5---5---|------------3---|/7--5---5-------| 
E|--------5-5-----|----------------|5-5---5---5-----|----------------| 

verse 1 
G|----------------|----------------|----------------|----------------| 
D|----------------|----------7-----|----------------|----------------| x3 
A|5-5-5-5-----3-3-|5-----5-5---5---|------------3---|/7--5---5-----3-| 
E|--------5-5-----|----------------|5-5---5---5-----|------------5---| 

G|----------------|----------------|----------------|----------------| 
D|----------------|----------7-----|----------------|----------------|  
A|5-5-5-5-----3-3-|5-----5-5---5---|------------3---|/7--5---5-------| 
E|--------5-5-----|----------------|5-5---5---5-----|----------------| 


G|----------------|----------------|----------------|----------------| 
D|----------------|----------------|----------------|--------7-------| 
A|----------------|----------------|------------7---|----5-5---5-----| 
E|----------------|----------------|5-5-5-5-5-5---5-|----------------| 

G|----------------|----------------|----------------|----------------| 
D|------------7---|--------7-------|----------------|--------7-------| 
A|5-5-5-5-5-5---5-|----5-5---5-----|------------7---|----5-5---5-----| 
E|----------------|----------------|5-5-5-5-5-5---5-|----------------| 

G|----------------|----------------|----------------|----------------| 
D|----------------|----------7-----|----------------|------------7-5-|  
A|5-5-5-5-----3-3-|5-----5-5---5---|------------3---|/7--5---5-------| 
E|--------5-5-----|----------------|5-5---5---5-----|----------------| 

G|----------------|----------------|----------------|----------------| 
D|3---------------|----------7-----|----------------|----------------|  
A|--5-5-5-----3-3-|5-----5-5---5---|------------3---|/7--5---5-------| 
E|--------5-5-----|----------------|5-5---5---5-----|----------------| 

Chorus 
G|----------------|----------------|----------------|----------------| 
D|----------------|----------7-----|----------------|----------------| x3 
A|5-5-5-5-----3-3-|5-----5-5---5---|------------3---|/7--5---5-----3-| 
E|--------5-5-----|----------------|5-5---5---5-----|------------5---| 

G|----------------|----------------|----------------|----------------| 
D|----------------|----------7-----|----------------|----------------|  
A|5-5-5-5-----3-3-|5-----5-5---5---|------------3---|/7--5---5-------| 
E|--------5-5-----|----------------|5-5---5---5-----|----------------| 

verse 2 
G|----------------|----------------|----------------|----------------| 
D|----------------|----------7-----|----------------|----------------| x3 
A|5-5-5-5-----3-3-|5-----5-5---5---|------------3---|/7--5---5-----3-| 
E|--------5-5-----|----------------|5-5---5---5-----|------------5---| 

G|----------------|----------------|----------------|----------------| 
D|----------------|----------7-----|----------------|----------------|  
A|5-5-5-5-----3-3-|5-----5-5---5---|------------3---|/7--5---5-------| 
E|--------5-5-----|----------------|5-5---5---5-----|----------------| 

G|----------------|----------------|----------------|----------------| 
D|----------------|----------------|----------------|----------------| 
A|----------------|----------------|----------------|----------------| 
E|----------------|----------------|----------------|----------------| 

           
G|----------------|----------------|----------------|----------------| 
D|------------7---|--------7-------|----------------|----------------| 
A|5-5-5-5-5-5---5-|----5-5---5-----|----------------|----------------| 
E|----------------|----------------|----------------|----------------| 

G|----------------|----------------|----------------|----------------| 
D|----------------|----------7-----|----------------|------------7-5-|  
A|5-5-5-5-----3-3-|5-----5-5---5---|------------3---|/7--5---5-------| 
E|--------5-5-----|----------------|5-5---5---5-----|----------------| 

G|----------------|----------------|----------------|----------------| 
D|3---------------|----------7-----|----------------|----------------|  
A|--5-5-5-----3-3-|5-----5-5---5---|------------3---|/7--5---5-----3-| 
E|--------5-5-----|----------------|5-5---5---5-----|------------5---| 

Instrumental 
G|----------------|----------------|----------------|----------------| 
D|----------------|----------------|----------------|----------------| 
A|5---------------|----------------|----------------|----------------| 
E|----------------|----------------|----------------|----------------| 

G|7-7-7-7-----5-5-|7-----7---------|----------------|----------------| 
D|--------7-7-----|----------7-----|----------------|----------------| 
A|----------------|------------5---|------------3---|/7--5---5-------| 
E|----------------|----------------|5-5---5---5-----|----------------| 

Chorus 
G|----------------|----------------|----------------|----------------| 
D|----------------|----------7-----|----------------|----------------| x3 
A|5-5-5-5-----3-3-|5-----5-5---5---|------------3---|/7--5---5-----3-| 
E|--------5-5-----|----------------|5-5---5---5-----|------------5---| 

G|----------------|----------------|----------------|----------------| 
D|----------------|----------------|----------------|----------------|  
A|----------------|----------------|----------------|/7--5---5-------| 
E|----------------|----------------|----------------|----------------| 

Instrumental 2 
G|----------------|----------------|----------------|----------------| 
D|----------------|----------7-----|----------------|----------------| x3 
A|5-5-5-5-----3-3-|5-----5-5---5---|------------3---|/7--5---5-----3-| 
E|--------5-5-----|----------------|5-5---5---5-----|------------5---| 

G|----------------|----------------|----------------|----------------| 
D|----------------|----------7-----|----------------|----------------|  
A|5-5-5-5-----3-3-|5-----5-5---5---|------------3---|/7--5---5-------| 
E|--------5-5-----|----------------|5-5---5---5-----|----------------| 

Chorus 

G|----------------|----------------|----------------|----------------| 
D|----------------|----------7-----|----------------|----------------| x3 
A|5-5-5-5-----3-3-|5-----5-5---5---|------------3---|/7--5---5-----3-| 
E|--------5-5-----|----------------|5-5---5---5-----|------------5---| 

G|----------------|----------------|----------------|----------------| 
D|----------------|----------7-----|----------------|----------------|  
A|5-5-5-5-----3-3-|5-----5-5---5---|------------3---|/7--5---5-------| 
E|--------5-5-----|----------------|5-5---5---5-----|----------------| 


************************************ 

| /   Slide up 
| \   Slide down 

************************************ 

roll up this ad to continue

share this page

See Also: