E-Chords
Orión

Co Tu Mame Dnes(Bass guitar)

Orión

roll up this ad to continue

Intro 

G|------------------------------| 
D|------------------------------| 
A|------------------------------| 
E|------------------------------| 


Chorus 

G|------------------------------| 
D|--------------4------4--------| 
A|4----2-4----2------2------4-4-| 
E|------------------------------| 


verse 1 

G|------------------------------| 
D|--------------4------4--------| 
A|4----2-4----2------2------4-4-| 
E|------------------------------| 


verse 2 

G|------------------------------| 
D|--------------4------4--------| 
A|4----2-4----2------2------4-4-| 
E|------------------------------| 


Chorus 

G|------------------------------| 
D|--------------4------4--------| 
A|4----2-4----2------2------4-4-| 
E|------------------------------| 
 
share this page

See Also: