E-Chords
Nerf Herder

Lamer Than Lame(Bass guitar)

Nerf Herder

roll up this ad to continue

Intro 
G|-------------------------------------| 
D|-------------------------------------| 
A|-------------------------------------|x4 
E|-7-7-7-7-7-7-9-10-3-3-3-3-3-3-/15-14-| 

Verse 
G|-------------------------------------| 
D|-------------------------------------| 
A|-------------------------------------|x3 
E|-7-7-7-----7-9-10-3-3-3-----3-/15-14-| 

G|--------------------------------| 
D|--------------------------------| 
A|--------------------------------| 
E|-7-7-7-----7-9-10-3-3-3-----3-8-| 

G|-------------------------------------| 
D|-------------------------------------| 
A|-------------------------------------|x3 
E|-7-7-7-7-7-7-9-10-3-3-3-3-3-3-/15-14-| 

G|----------------------------------| 
D|----------------------------------| 
A|--------------------------------2-| 
E|-7-7-7-7-7-7-9-10-3-3-3-3-3-3-3---| 

Pre-Chorus 
G|-----------------------------------------------------------------| 
D|-----------------------------------------------------------------| 
A|-3-3-3-3-3-3-3-3-2-2-2-2-------2-3-3-3-3-3-3-3-3-5-5-5-5-5-5-5-5-| 
E|-------------------------3-3-3-----------------------------------| 

Chorus 
G|-----------------------------------------------------------------| 
D|-----------------------------------------------------------------| 
A|-------------2---3-3-3-3-3-3-3-------------------2-2-2-2-2-2-2-2-|x2 
E|-0-0-0-0-0-0-------------------2-3-3-3-3-3-3-3-3-----------------| 

|---------------------------------| 
D|---------------------------------| 
A|-3-3-3-3-3-3-3-3-3-3-3-3-5-3-5-3-| 
E|---------------------------------| 

G|-------------------------------------| 
D|-------------------------------------| 
A|-------------------------------------|x2 
E|-7-7-7-7-7-7-9-10-3-3-3-3-3-3-/15-14-| 

Bridge 
G|-----------------------------------------------------------------| 
D|-----------------------------------------------------------------| 
A|-3-3-3-3-3-3-3-3-----------------3-3-3-3-3-3-3-3---------5-5-5-5-| 
E|-----------------3-3-3-3-3-3-3-3-----------------3-3-3-3---------| 

G|-----------------------------------------------------------------| 
D|-----------------------------------------------------------------| 
A|-3-3-3-3-3-3-3-3-----------------2-2-2-2-2-2-2-2-3-3-3-3-3-3-3-3-| 
E|-----------------3-3-3-3-3-3-3-3---------------------------------| 

G|-----------------| 
D|-----------------| 
A|-3-3-3-3-5-5-5-5-| 
E|-----------------| 

G|-----------------------------------------------------------------| 
D|-----------------------------------------------------------------| 
A|---------------------------------3-3-3-3-3-3-3-3-3-3-3-3-5-5-5-5-| 
E|-3-3-3-3-3-3-3-3-3-3-3-3-2-2-2-2---------------------------------| 

G|-----------------------------------------------------------------| 
D|-----------------------------------------------------------------| 
A|-------------------------9-9-9-9-3-3-3-3-3-3-3-3-3-3-3-3-5-5-5-5-| 
E|-3-3-3-3-3-3-3-3-3-3-3-3-----------------------------------------| 

G|-----------------------------------------------------------------| 
D|-----------------------------------------------------------------| 
A|-3-3-3-3-3-3-3-3-2-2-2-2-------2-3-3-3-3-3-3-3-3-5-5-5-5-5-5-5-5-| 
E|-------------------------3-3-3-----------------------------------| 

G|-----------------------------------------| 
D|-----------------------------------------| 
A|-5-5-5-5-5-5-5-5-17-17-17-17-17-17-17-17-| 
E|-----------------------------------------| 

Outro 
G|-----------------------------------------------------------------| 
D|-----------------------------------------------------------------| 
A|-------------2---3-3-3-3-3-3-3-------------------2-2-2-2-2-2-2-2-|x3 
E|-0-0-0-0-0-0-------------------2-3-3-3-3-3-3-3-3-----------------| 

G|-------------------------------------------------------------------| 
D|-------------------------------------------------------------------| 
A|-------------2---3-3-3-3-3-3-3-------------------2---2---2---2---3-| 
E|-0-0-0-0-0-0-------------------2-3-3-3-3-3-3-3-3-------------------| 



************************************ 

| /  Slide up 

************************************ 
share this page

See Also: