E-Chords
Milt Jackson

Old Devil Moon(Bass guitar)

Milt Jackson

roll up this ad to continue

Key: E
Intro 
G|------|-------|--------------|-----------|-0------------|-------|--------------| 
D|------|-------|---------1----|------0----|-----------3--|-3-----|---------1----| 
A|------|-------|----1---------|-0---------|------3-------|-------|----1---------| 
E|------|-------|--------------|-----------|--------------|-------|--------------| 

G|-----------|-0------------|-------|--------------|-----------|--------------|-----------| 
D|------0----|-----------3--|-3-----|--------------|-----------|--------------|-----------| 
A|-0---------|------3-------|-------|-3----3---3---|-3----3----|-3----3---3---|-3----3----| 
E|-----------|--------------|-------|--------------|-----------|--------------|-----------| 

G|--------------|-----------|-----------|-------------------|---------0-------|-----0---1---2---| 
D|--------------|-----------|-0---------|-----------3-------|-----0-------2---|-3---------------| 
A|-3----3---3---|-3----3----|------3----|-2---2---2-----0---|-1---------------|-----------------| 
E|--------------|-----------|-----------|-------------------|-----------------|-----------------| 

G|-3---2---1---2---|-3-----------3---|-1---1-----------|---------0-------|-------------------| 
D|-----------------|-----2---1-------|-----------------|-4---------------|-----------0-------| 
A|-----------------|-----------------|---------4---4---|-----4-------3---|-3---3-3-------2---| 
E|-----------------|-----------------|-----------------|-----------------|-------------------| 

G|---------0-------|---------------------|-----4-----------|-----2---4---3---|-2---0-----------| 
D|-----0-------1---|-3---3-----0-0---3---|-2-------1---1---|-0---------------|---------4-------| 
A|-3---------------|-------0-------------|-----------------|-----------------|-------------0---| 
E|-----------------|---------------------|-----------------|-----------------|-----------------| 

G|-----2-----------|-0---0----------1---|-0---0--------------|-5---------|-5------------| 
D|-0-------3---0---|--------3---0-------|--------------------|-----------|--------------| 
A|-----------------|--------------------|------------0---2---|-----3-----|------3---3---| 
E|-----------------|--------------------|--------3-----------|-----------|--------------| 

G|-------|-5-------------|-------|----5------5-------|-------|-----------|--------------------| 
D|-------|---------------|-------|-------------------|-------|-0---------|---------3--3-------| 
A|-------|------3----3---|-3-----|-------3-------3---|-3-----|------3----|-2---2----------0---| 
E|-------|---------------|-------|-------------------|-------|-----------|--------------------| 

G|---------0-------|-----------------|---------3-------|-----1---3---2---|-1---0-----------| 
D|-----0-------2---|-3---------------|-----3-------3---|-1---------------|-----------------| 
A|-1---------------|-----0---3---2---|-1---------------|-----------------|---------4---4---| 
E|-----------------|-----------------|-----------------|-----------------|-----------------| 

G|-----6---0-0-2-0---------|---------------|----------------|-----------|-0---------| 
D|-4----------------0------|-3-------------|----------------|------0----|-----------| 
A|---------------------3---|-----3----3----|-3----3--2--1---|-0---------|------3----| 
E|-------------------------|---------------|----------------|-----------|-----------| 

G|-----------|-------|-----------------|-----3-----------|-----------------|-----3-----------| 
D|-3---------|-------|-------------3---|-1-------1---2---|-3-------3---2---|-1-------1---2---| 
A|-----------|-------|-3---0---3-------|-----------------|-----0-----------|-----------------| 
E|-----1-----|-1-----|-----------------|-----------------|-----------------|-----------------| 

G|-----------------|-----3-----------|---------0-------|-----0-------------|-3---2---3-------| 
D|-3-------0-------|---------1---2---|-----0-----------|---------3---------|-------------0---| 
A|-----0-------0---|-1---------------|-0-----------2---|-3-----------3-0---|-----------------| 
E|-----------------|-----------------|-----------------|-------------------|-----------------| 

G|-0---------------|---------1---2---|-3--3----------3---|-1---3---1---0---|-----6---0-------| 
D|-----2---3---0---|-----3-----------|-------3---1-------|-----------------|-4-----------10--| 
A|-----------------|-1---------------|-------------------|-----------------|-----------------| 
E|-----------------|-----------------|-------------------|-----------------|-----------------| 

G|-10--9---7---9---|-8---3---5---6---|-----5---8---10--|-8-----------8---|-7---9---10--9---| 
D|-----------------|-----------------|-3---------------|---------8-------|-----------------| 
A|-----------------|-----------------|-----------------|-----6-----------|-----------------| 
E|-----------------|-----------------|-----------------|-----------------|-----------------| 

G|-7-------2-------|-------------2---|-0---0---------0---|-3--0---------------|-----------------| 
D|-----4-----------|-0---2---3-------|-------3---0-------|------0-------------|---------0---2---| 
A|-------------0---|-----------------|-------------------|------------0---3---|-----3-----------| 
E|-----------------|-----------------|-------------------|--------0-----------|-3---------------| 

G|-----------------|-----3-------0---|-----------------|-----3-----------|-----0---1---2---| 
D|-3-------3---2---|-1-------1-------|-3-------3---2---|-1-------1---2---|-3---------------| 
A|-----0-----------|-----------------|-----0-----------|-----------------|-----------------| 
E|-----------------|-----------------|-----------------|-----------------|-----------------| 

G|-3---1---3---0---|-----2-------4---|-----0-----------|---------0-------|-----0---1---2---| 
D|-----------------|-0-------4-------|---------3-------|-----0-------2---|-3---------------| 
A|-----------------|-----------------|-3-----------0---|-1---------------|-----------------| 
E|-----------------|-----------------|-----------------|-----------------|-----------------| 

G|-3---2---3-------|-3-----------0---|-1---3---1-------|-----6---0-------|-----------------| 
D|-------------3---|-----3---1-------|-----------------|-4---------------|-3-------3-------| 
A|-----------------|-----------------|-------------4---|-------------3---|-----3-------3---| 
E|-----------------|-----------------|-----------------|-----------------|-----------------| 

G|-----------------|-2-----------2---|-0---7---5---3---|-2---------------|-0-----------9---| 
D|-----------------|---------0-------|-----------------|-------------7---|-----9---10------| 
A|-2---2---1---1---|-----0-----------|-----------------|-----0---8-------|-----------------| 
E|-----------------|-----------------|-----------------|-----------------|-----------------| 

G|-10------10--9---|-8---3---8---9---|-10--------------|-----0-------8---|-10------7-------| 
D|-----10----------|-----------------|---------10------|---------8-------|-----7-----------| 
A|-----------------|-----------------|-----8-------8---|-6---------------|-------------3---| 
E|-----------------|-----------------|-----------------|-----------------|-----------------| 

G|-------------3---|-4---2---3---0---|-2---------------|---------0-------|-----------------| 
D|---------1-------|-----------------|-----------------|-----0-------2---|-3---------------| 
A|-----1-----------|-----------------|-----0---3---2---|-1---------------|-----0---3---2---| 
E|-3---------------|-----------------|-----------------|-----------------|-----------------| 

G|-----------------|-----3-------0---|-1---3---1-------|-----3---0-------|-----------------| 
D|-------------0---|-1-------1-------|-----------------|-----------------|-3-------0-------| 
A|-1---3---4-------|-----------------|-------------4---|-------------3---|-----0-------2---| 
E|-----------------|-----------------|-----------------|-2---------------|-----------------| 

G|---------0-------|-10--9---7---10--|-8-------8---7---|-8---12------------|-10--11-------------| 
D|-----0-----------|-----------------|-----8-----------|-------0-------0---|--------0-------0---| 
A|-3-----------7---|-----------------|-----------------|-----------0-------|------------0-------| 
E|-----------------|-----------------|-----------------|-------------------|--------------------| 

G|-10--10------------|-10--10-------------|-----------------|-------------0---|-----------------| 
D|-------0-------0---|--------0-------0---|-----------------|-----------------|-3-------3---2---| 
A|-----------0-------|------------0-------|-----0---1---2---|-3---2---3-------|-----0-----------| 
E|-------------------|--------------------|-3---------------|-----------------|-----------------| 

G|-----3-----------|-------------------|-0---2---3---0---|-2-------5---4---|-3-----------------| 
D|-1-------1---2---|-3-----------3--3--|-----------------|-----3-----------|-----0-0---1---2---| 
A|-----------------|-----0---3---------|-----------------|-----------------|-------------------| 
E|-----------------|-------------------|-----------------|-----------------|-------------------| 

G|--------------------|-----0-----------|---------0-------|-----------------|---------3---3------| 
D|-3---3------0-------|---------3-------|-----0-------2---|-3---------------|-----3----------2---| 
A|--------0-------3---|-2-----------0---|-1---------------|-----0---3---2---|-1------------------| 
E|--------------------|-----------------|-----------------|-----------------|--------------------| 


G|-----2---3---2---|-1---3---1-------|-----6---0-------|-----------------|---------3---0---| 
D|-1---------------|-----------------|-4---------------|-3---------------|-----3-----------| 
A|-----------------|-------------4---|-------------3---|-----3---3---0---|-1---------------| 
E|-----------------|-----------------|-----------------|-----------------|-----------------| 

G|-2-----------2---2-|-0---4---5---7---9-|-10--9---8---10--|-8---------------|-------------10--9---| 
D|---------0---------|-------------------|-----------------|-----8---9---10--|-10------10----------| 
A|-----0-------------|-------------------|-----------------|-----------------|---8--8--------------| 
E|-------------------|-------------------|-----------------|-----------------|---------------------| 

G|-8-----------8---|-10------10--9---|-8-----------8----|-10------5---10--9-|-8-----------8---| 
D|---------8-------|-----------------|---------8--------|-------------------|---------8-------| 
A|-----6-----------|-----8-----------|-----6------------|-----8-------------|-----6-----------| 
E|-----------------|-----------------|------------------|-------------------|-----------------| 

G|-10------10--9---|-8-----------0---|---------0---1---2---|-3-------0---0---|---------1---2---| 
D|-----------------|---------0-------|-3---3---------------|-----0-----------|-----3-----------| 
A|-----8-----------|-----------------|---------------------|-----------------|-1---------------| 
E|-----------------|-----3-----------|---------------------|-----------------|-----------------| 

G|-3-----------3---|-1---------------|---------0-------|-----------------|-----------------| 
D|-----3---1-------|-------------3---|-4---------------|-3-------0-------|-----0---1---2---| 
A|-----------------|-----2---4-------|-----4-------3---|-----0-------2---|-3---------------| 
E|-----------------|-----------------|-----------------|-----------------|-----------------| 

G|-----------------|-----------------|--------------------|-----------------|---------4---3---| 
D|-3---------------|-----------------|-0---0---4--0---0---|-0---0----3------|-0---3-----------| 
A|-----3-----------|-----2---0---4---|--------------------|-------------0---|-----------------| 
E|---------2---1---|-0---------------|--------------------|-----------------|-----------------| 

G|-2-----------2---|-0--0--2---3---4---|-5-------0---5---|-----------------|-----3----------| 
D|---------0-------|-------------------|-----------------|-3-------3---2---|-1-------1---2--| 
A|-----0-----------|-------------------|-----3-----------|-----0-----------|----------------| 
E|----------------|-------------------|-----------------|-----------------|-----------------| 

G|-------------9---|-10--9---8---9---|-10----------------|-----------------|-----------------| 
D|-3---------------|-----------------|-----10----10------|-3---2---1---2---|-3---0-----------| 
A|-----0---8-------|-----------------|-------8-------0---|-----------------|---------3---2---| 
E|-----------------|-----------------|-------------------|-----------------|-----------------| 

G|-----0-----------|---------0-------|-----0---1---2---|-3---2---1---2---|-3-----------0---| 
D|---------3-------|-----0-------2---|-3---------------|-----------------|-----3---1-------| 
A|-1-----------0---|-1---------------|-----------------|-----------------|-----------------| 
E|-----------------|-----------------|-----------------|-----------------|-----------------| 

G|-2---------------|-1-------0-------|-----------------|---------3---1---|-2-----------2---| 
D|-----0-------3---|-----------------|-3---------------|-----3-----------|---------0-------| 
A|---------4-------|-----4-------3---|-----3---3---0---|-1---------------|-----0-----------| 
E|-----------------|-----------------|-----------------|-----------------|-----------------| 

G|-0---------------|-------------2---|-0---------------|--------------------|-----3-----------| 
D|-----------------|-----2---0-------|-------------4---|-3---3------3---2---|-1-------1---2---| 
A|-----2---3---1---|-0---------------|-----2---3-------|--------0-----------|-----------------| 
E|-----------------|-----------------|-----------------|--------------------|-----------------| 

G|-------------0---|-10--9---8---9---|-10------10--9---|-8---0-------------|-------------0---| 
D|-3-------0-------|-----------------|-----------------|-------0-----------|-----0---1-------| 
A|-----0-----------|-----------------|-----8-----------|-----------3---2---|-1---------------| 
E|-----------------|-----------------|-----------------|-------------------|-----------------| 

G|-----------------|---------0-------|-----0-----------|---------1---2---|-3-----------3---| 
D|-3---------------|-----0-------2---|-3---------------|-----3-----------|-----2---1-------| 
A|-----0---3---2---|-1---------------|---------3---2---|-1---------------|-----------------| 
E|-----------------|-----------------|-----------------|-----------------|-----------------| 

G|-1---1---4---2---|-----6---0-0-------|-----------------|-----------------|-----0-----------| 
D|-----------------|-4-------------2---|-3---------------|---------0-------|---------2---3---| 
A|-----------------|-------------------|-----0---1---2---|-3---4-------4---|-3---------------| 
E|-----------------|-------------------|-----------------|-----------------|-----------------| 

G|-----------------|-------------------|-----------------|-----2---4---0---|-2-----------2--0--| 
D|-2---1---0-------|-0---0---------2---|-----------------|-0---------------|---------0---------| 
A|-------------0---|-------4---2-------|-0---1---2---4---|-----------------|-----0-------------| 
E|-----------------|-------------------|-----------------|-----------------|-------------------| 

G|-0---2---3---4---|-5---0--0---------0-------|-----------------|-----3-----------| 
D|-----------------|-----------2--------2-----|---------3---2---|-1-------1---2---| 
A|-----------------|-------------3-3------3---|-----3-----------|-----------------| 
E|-----------------|--------------------------|-1---------------|-----------------| 

G|-----------------|-------------0---|-2---------------|-----0---8---9---|-10----------9---| 
D|-3---------------|-----1-----------|---------3---2---|-1---------------|-----------------| 
A|-----0---3---2---|-1-------1-------|-----3-----------|-----------------|-----8---7-------| 
E|-----------------|-----------------|-----------------|-----------------|-----------------| 

G|-8---0-------2---|-3-------0-------|-----------------|---------1---2---|-3-----------0---| 
D|---------3-------|-----0-------2---|-3---------------|-----3-----------|-----3---1-------| 
A|-----------------|-----------------|-----0---3---2---|-1---------------|-----------------| 
E|-----------------|-----------------|-----------------|-----------------|-----------------| 

G|-1---------------|---------0-------|--------------|---------3---0---|-2-----------0---| 
D|-------------3---|-4---------------|-3------------|-----3-----------|---------0-------| 
A|-----3---4-------|-----4-------3---|-----3----3---|-1---------------|-----0-----------| 
E|-----------------|-----------------|--------------|-----------------|-----------------| 

G|-------------0---|-----------------|---------0---4---|-----5-------5---|-----5-------5---| 
D|-3---------------|-3-------0-------|-----------------|-----------------|-----------------| 
A|-----2---3-------|-----0-------2---|-3---3-----------|-3-------3-------|-3-------3-------| 
E|-----------------|-----------------|-----------------|-----------------|-----------------| 

G|-----5-------5---|-----5-------5---|-----5-------5---|-----5-------5---|-----------| 
D|-----------------|-----------------|-----------------|-----------------|-0---------| 
A|-3-------3-------|-3-------3-------|-3-------3-------|-3-------3-------|------4----| 
E|-----------------|-----------------|-----------------|-----------------|-----------| 

G|---------------------|---------0-------|-----0---1---2---|-3---2---1---2---|-3-------3---2---| 
D|---------------------|-----3-------2---|-3---------------|-----------------|-----------------| 
A|-----3----3-----2----|-1---------------|-----------------|-----------------|-----4-----------| 
E|-3-----------2-------|-----------------|-----------------|-----------------|-----------------| 

G|-1---------------|---------0-------|-----------------|---------0---8---9--|-10--9---8---10--| 
D|-------------3---|-4---------------|-3---------------|-----0--------------|-----------------| 
A|----3----4-------|-----4-------3---|-----0---1---2---|-3------------------|-----------------| 
E|-----------------|-----------------|-----------------|--------------------|-----------------| 

G|-9---9-------8---|-7-------2---4---|-4---3---2-------|-----------------|-------------2---| 
D|-----------------|-----0-----------|-----------------|-0---------------|-----2---0-------| 
A|---------6-------|-----------------|-------------0---|-----3---2---1---|-0---------------| 
E|-----------------|-----------------|-----------------|-----------------|-----------------| 

G|-0------------------|--------------|---------5-------|------5----|------5-------| 
D|--------------------|--------------|-----------------|-----------|--------------| 
A|------------0---2---|-3---3--------|-----3-------3---|-3---------|-3--------3---| 
E|-----3--3-----------|---------0----|-0---------------|-----------|--------------| 

G|------5----|-5-------5-------|------5----|--------------|-----------------|---------0-------| 
D|-----------|-----------------|-----------|-0------------|------3----------|-----0-------2---| 
A|-3---------|----3--------3---|-3---------|------4---3---|-3--------3--1---|-1---------------| 
E|-----------|-----------------|-----------|--------------|-----------------|-----------------| 

G|-------0-0-----------|---------3-3---2---|-3-------3---2---|-1---------------|---------0-------| 
D|-3---3---------------|-----3-------------|-----1-----------|-------------3---|-4---------------| 
A|-------------3---2---|-1-----------------|-----------------|-----3---4-------|-----4-------3---| 
E|---------------------|-------------------|-----------------|-----------------|-----------------| 

G|-----------------|-----------------|-------------2---0--|-0---0----------------| 
D|-3---3-----------|---------1---1---|---------0----------|--------2--0----------| 
A|---------3---1---|-0---0-----------|-0---0--------------|--------------3---3---| 
E|-----------------|-----------------|--------------------|----------------------| 

G|-----------------|-------------1---|-1-------0---2---0--|-0--------------|--------------| 
D|-----3-----------|-----1---0-------|-----0--------------|-----0----------|----------3---| 
A|-2-------2---1---|-0---------------|--------------------|-------2---3----|-2----1-------| 
E|-----------------|-----------------|--------------------|----------------|--------------| 

G|--------------|-----------|-0-----------|-----------10---10---|-10----------|--------| 
D|-----2---0----|------0----|-------------|---------------------|-------------|--------| 
A|-0------------|-0---------|-------3-----|---------------------|-------3-----|-3------| 
E|--------------|-----------|-------------|---------------------|-------1-----|-1------| 

G|--------| 
D|--------| 
A|-3------| 
E|-1------| 
share this page

See Also: