E-Chords
Meters

Cissy Strut(Bass guitar)

Meters

roll up this ad to continue

G|53----------------------|53----------------------|53-----------------------|  
D|--5-1--------------5----|--5-1--------------5----|--5-1--------------5-----|  
A|------3-----3--3-5---5--|------3-----3--3-5---5--|------3-----3--3-5---5---|  
E|--------33-5--5--------3|--------33-5--5--------3|--------33-5--5--------3-|  

G|53----------------------|5-353-53--5-353--|5-353-53--5-353--|  
D|--5-1--------------5----|-----5---------5-|-----5---------5-|  
A|------3-----3--3-5---5--|----------------3|----------------3|  
E|--------33-5--5--------3|-----------------|-----------------|  

G|5-353-53--5-353--|5-353-53--5-353--|  
D|-----5---------5-|-----5---------5-|  
A|----------------3|----------------3|  
E|-----------------|-----------------|  

G|53----------------------|53----------------------|53-----------------------|  
D|--5-1--------------5----|--5-1--------------5----|--5-1--------------5-----|  
A|------3-----3--3-5---5--|------3-----3--3-5---5--|------3-----3--3-5---5---|  
E|--------33-5--5--------3|--------33-5--5--------3|--------33-5--5--------3-|  

G|53----------------------|5-353-53--5-353--|5-353-53--5-353--|  
D|--5-1--------------5----|-----5---------5-|-----5---------5-|  
A|------3-----3--3-5---5--|----------------3|----------------3|  
E|--------33-5--5--------3|-----------------|-----------------|  

G|5-353-53--5-353--|5-353-53--5-353--|  
D|-----5---------5-|-----5---------5-|  
A|----------------3|----------------3|  
E|-----------------|-----------------|  

G|53----------------------|53----------------------|53-----------------------|  
D|--5-1--------------5----|--5-1--------------5----|--5-1--------------5-----|  
A|------3-----3--3-5---5--|------3-----3--3-5---5--|------3-----3--3-5---5---|  
E|--------33-5--5--------3|--------33-5--5--------3|--------33-5--5--------3-|  
share this page

See Also: