E-Chords
Mcfly

Lies Solo(Bass guitar)

Mcfly

G|------------------------------------------------------------------| 
D|--------5--7--5-------------------------------------------- ------| 
A|--5--8----------8--5--8-----------8--10br--8------8--10-----------| 
E|-----------------------------6-6---------------10-----------------| 

G|--------------------------------------------------------------------| 
D|--------5--7--5-----------------------------------------------------| 
A|-----8-----------8--5--8--------------------------------------------| 
E|--7------------------------6-6---5----------------------------------| 

roll up this ad to continue

share this page

See Also: