E-Chords
Mcfly

Ignorance(Bass guitar)

Mcfly

Verso 'But it's won over by ignorance...' 
G|--------------------------------------------------------------------| 
D|--------------------------------------------------------------------| 
A|-777777777777777-6-4444444444-66-7-777777777777-6-4444444444444444--| 
E|--------------------------------------------------------------------| 

Ponte 'these pills weren't meant to hurt you...' 
G|---------------------------------------------------------| 
D|---------------------------------------------------------| 
A|---------------------------------------------------------| 
E|-55555555555555555555-2222222-44444444-55555555-77777777-| 

Verso x1 
Ponte x1 

Refrão 'In the story i was told..' 
G|-------------------------------------------------------------------------------------| 
D|-------------------------------------------------------------------------------------| 
A|4-44-4-4-4-4-4-6-66-6-6-6-6-6-7-77-7-7-7-7-7-------------4-44-4-4-4-4-4-6-66-6-6-66--| 
E|---------------------------------------------5-55-5-5-5-5---------------------------7| 

Verso 
G|--------------------------------------------------------------------| 
D|--------------------------------------------------------------------| 
A|-777777777777777-6-4444444444-66-7-777777777777-6-4444444444444444--| 
E|--------------------------------------------------------------------| 

Ponte 'These pills weren't meant to hurt you...' 
G|-------------------------------------------------------------------| 
D|----------------777777777777777-44444444-6666666-77777777-99999999-| 
A|-------------------------------------------------------------------| 
E|555555555555555----------------------------------------------------| 

Refrão 
G|-------------------------------------------------------------------------------------| 
D|-------------------------------------------------------------------------------------| 
A|4-44-4-4-4-4-4-6-66-6-6-6-6-6-7-77-7-7-7-7-7-------------4-44-4-4-4-4-4-6-66-6-6-66-7| 
E|---------------------------------------------5-55-5-5-5-5----------------------------| 

Breakdown 'They won't let go...' 
G|------------------------------------| 
D|-2222222222222222----------11111111-| 
A|------------------33333333----------| 
E|------------------------------------| x2 

G|-----------------|     |-------------------| 
D|-22----11--------|     |-------------------| 
A|----33----22-2---|     |-22222222-3333333--| 
E|-----------------| x3  |-------------------| 

Outro 
G|----------------------------------|    
D|2222222222222222------------------|    
A|-----------------44444444-33333333|    
E|----------------------------------|x2  

G|---------444-222-2h4----------------------|   |----------| 
D|22222222----------------------666-444-4h6-|   |----------| 
A|---------------------44444444-------------|   |----4~----| 
E|------------------------------------------|x2 |----------| 


créditos: Valerie L 

roll up this ad to continue

share this page

See Also: