E-Chords
Mcfly

Everybody Knows Bass(Bass guitar)

Mcfly

/ : Slide up 
\ : Slide down 


Intro (0:03) 

G|-------------------------------------| 
D|-------------------------------------| 
A|---------------4422--------4422------| 
E|--2/14\2-0055--------0055------------| 


Verse (0:11) 

G|-------------------------------------| 
D|-------------------------------------| 
A|----------44442222--------4422-------| x4 
E|--00005555----------0055-------------| 


Bridge (0:43) 

G|-------------------------------------| 
D|-------------------------------------|   
A|--0--047762--77790--047762--7779-----|        
E|-------------------------------------| 

G|-------------------------------------| 
D|-------------------------------------| 
A|-------------------------------------| 
E|-----5555555577777777555-555---------| 


Chorus (0:58) 

G|-------------------------------------| 
D|-------------------------------------| 
A|-------44-22224--------44-22224------| 
E|--0-55----------0-55-----------------| 

G|-------------------------------------| 
D|-------------------------------------| 
A|-------44-2222-55555555--------------| 
E|--0-55-------------------555-555-----| 


Bridge (1:14) 

G|-------------------------------------| 
D|-------------------------------------| 
A|-------4422--------4422--------------| 
E|--0055--------0055-------------------| 


Verse (1:22) 

G|-------------------------------------| 
D|-------------------------------------| 
A|----------44442222--------4422-------| x2 
E|--00005555----------0055-------------| 


Bridge (1:37) 

G|-------------------------------------| 
D|-------------------------------------|   
A|--0--047762--77760--047762--7776-----|        
E|-------------------------------------| 

G|-------------------------------------| 
D|-------------------------------------| 
A|-------------------------------------| 
E|-----5555555577777777555-555---------| 


Chorus (1:53) 

G|-------------------------------------| 
D|-------------------------------------| 
A|-------44-22224--------44-22224------| 
E|--0-55----------0-55-----------------| 

G|-------------------------------------| 
D|-------------------------------------| 
A|-------44-2222-55555555--------------| 
E|--0-55-------------------555-555-----| 


Solo (2:09) 

G|-------------------------------------| 
D|-------------------------------------| 
A|-------44-22224--------44-22224------| 
E|--0-55----------0-55-----------------| 

G|-------------------------------------| 
D|-------------------------------------| 
A|-------44-2222-55555555--------------| 
E|--0-55-------------------555-555-----| 


Drum Part (2:25) 

G|-------------------------------------| 
D|-------------------------------------|  {The slide is before the third   
A|-------------------------------------|       'Every', not necessary} 
E|----------------------------14\2-----| 

G|-------------------------------------| 
D|-10/12-11-9--------------------------| 
A|-----------12-11-9-------------------|    
E|-------------------12-10-9-7-55555555| 


Chorus (2:40) 

G|-------------------------------------| 
D|-------------------------------------| 
A|-------66-44446--------66-44446------| 
E|--2-77-----------2-77----------------| 

G|-------------------------------------| 
D|-------------------------------------| 
A|-------66-44446-77777777-------------| 
E|--2-77------------------777-777------| 


Outro (2:55) 

G|-------------------------------------| 
D|-------------------------------------| 
A|-------6644446-------6644------------| 
E|--2277---------2277---------14\------| 

G|---------------17\-------------------| {The slide here is made 
D|-------------------------------------|     kinda like a tremolo} 
A|-------6644446-----------------------| 
E|--2277-----------------777-777-------| 

roll up this ad to continue

share this page

See Also: