E-Chords
Mcfly

Do Watcha(Bass guitar)

Mcfly

Intro 

G|---------------------------------------------------| 
D|---------------------------------------------------|   (4x) 
A|----------------------------------5555-------------| 
E|-55555555-5555-8888-11111111-1111------------------| 

Verse 

G|----------------------------------------------------| 
D|----------------------------------------------------| 
A|----------------------------------------------------|    (4x) 
E|-55555555-55555555-00000000-11111111----------------| 

Chorus 

G|-----------------------------------------------------| 
D|-----------------------------------------------------| 
A|-33333333-3333-5555----------------------------------|   (2x) 
E|--------------------55555555-5555-1111---------------| 

Interlude 

G|-----------------------------------------------------| 
D|-----------------------------------------------------|   (2x) 
A|----------------------------------5555---------------| 
E|-44444444-4444-8888-11111111-1111--------------------| 

verse 

G|-----------------------------------------------------| 
D|-----------------------------------------------------|  (2x) 
A|-----------------------------------------------------| 
E|-55-5-5-55-5-5-00-0-0-11-1-1-------------------------| 

Chorus 

G|------------------------------------------------------| 
D|------------------------------------------------------| 
A|-33333333-3333-5555-----------------------------------|    
E|--------------------55555555-5555-1111----------------| 


G|------------------------------------------------------| 
D|------------------------------------------------------| 
A|-33333333-3333-5555-----------------------------------|    
E|--------------------55555555-5555-11-1-1-11-1-1-------| 

Keys Solo 

G|------------------------------------------------------| 
D|------------------------------------------------------|   (4x) 
A|-33333333-3333-5555-----------------------------------|    
E|--------------------55555555-5555-11-1-1-11-1-1-------| 

Verse 

G|------------------------------------------------------| 
D|------------------------------------------------------|   (2x) 
A|----------------------------------5555----------------| 
E|-55555555-5555-8888-11111111-1111---------------------| 


G|------------------------------------------------------| 
D|------------------------------------------------------|   (2x) 
A|-3----------------------------------------------------| 
E|------------------------------------------------------| 


Chorus 

G|------------------------------------------------------| 
D|------------------------------------------------------| 
A|-33333333-3333-5555-----------------------------------|   (4x) 
E|--------------------55555555-5555-1111----------------| 

Outro 

G|------------------------------------------------------| 
D|------------------------------------------------------|    
A|----------------------------------5555----------------| 
E|-55555555-5555-8888-11111111-1111---------------------| 

G|------------------------------------------------------| 
D|------------------------------------------------------|    
A|------------------------------------------------------| 
E|-55555555-5555-8888-11-1-1-11-1-1-1-------------------| 

roll up this ad to continue

share this page

See Also: