Los Bunkers

Yo Sembré Mis Penas De Amor(Bass guitar)

Los Bunkers

roll up this ad to continue

	        INTRO: 
----------------------- 
----------------------- 
----------------------- 
-0-5-7-5---0-5-7-5----- 


Mírame         y dime si puedes  
	       ver quien soy 

Tócame         y te llevaré hacia 
	       donde voy 
------------------------------------------------------------¦ 
------------------------------------------------------------¦x2 
---------------------------------7-5------------------------¦ 
-0-0-4-0-5-5---5-7-5-4-5-7-5-4-0-----7-5--5-7-5-4-5-7-4-----¦ 



Crees que puedes soñar   sin siquiera pestañar 
------------------------------------------------ 
----1-2-3-4-2-1------------1-2-3-4-2-1---------- 
-4--------------4--------4-------------4-------- 
------------------------------------------------ 




Tristezas       puedo asegurar 
Para que        podamos jugar 
------------------------------------------------------------¦ 
------------------------------------------------------------¦x2  
-------------------------------7-7-5-7-5-7-7----7-5---------¦ 
-3-3-0-3-0-3-3---5-5-3-5-3-5-5----------------------7-5-3-0-¦ 


No importa el   tiempo que  debamos esperar 
----------------------------------------------------- 
-----------------------------------------------2----- 
-------------------------------5-5-4-4-2-2-0-4---4---	 
-3-3-0-3-0-3-3---5-5-3-5-3-5-5-----------------------       		   


siempre sin        oportuno          Amaaaaaaaaaaaaaaaar 
------------------------------------------------------------------ 
----------------------------------------------------------------- 
---------------------------------------------------2-2-0-2-0-2-2--	 
-3-3-3-3-3-3-3-3---2-2-2-2-2-2-2-2---0-0-0---0---0---------------- 



Los motivos del bajo se repiten en la segunda estrofa.  
Y eso. 

¡Viva Chile Mierda! 

Cualquier consulta, reproche o acuerdo, escribánme a mi e-mail 
[email protected] o [email protected].
	        

Written by Mauricio Durán

share this page

See Also: