E-Chords
Little Texas

God Bless Texas(Bass guitar)

Little Texas

roll up this ad to continue

Key: E
Intro 

   Wx2    S  S  H..      E  E  H.     E  E  Q  Q  Q 
G|-----|--------------|------------|----------------| 
D|-----|--------------|------------|----------------| 
A|-----|--------0-----|--------0---|--------0--0--0-| 
E|-----|--0--2--------|--0--2------|--0--2----------| 


   Q   E  E  Q  Q      E  E  E  E  E  E  E  E 
G|--------------------|-2--0--1--2----------------| 
D|--------------------|-------------2--1--0-------| 
A|--0---------0--0----|----------------------0----| 
E|------0--2----------|---------------------------| 

Verse 
    Q    Q    Q    Q      Q    Q    Q    Q 
G||--------------------|---------------------| 
D||o-------------------|---------------------| 
A||o-0----0----0----0--|---0----0----0----0--| 
E||--------------------|---------------------| 


    E    E     Q   Q   Q      Q    Q    E    E    Q 
G|--------------------------|---------------------------| 
D|--------------------------|---------------------------| 
A|---0----------------------|---------------------------| 
E|--------2-----0---0---0---|--0----0----0----2----0----| 


  Q  Q  Q  Q    E  E  E  E  E   E E  E   Q  Q  Q  Q    Q  Q  Q  Q 
G|-------------|-2--0--1--2-------------|-------------|------------| 
D|-------------|-------------2---1-0----|-------------|------------| 
A|-0--0--0--0--|----------------------0-|-0--0--0--0--|-0--0--0--0-| 
E|-------------|------------------------|-------------|------------| 


  E  E  Q  Q  Q     Q  Q  E  E  Q    Q  Q  Q  Q    Q  Q  Q  Q 
G|----------------|-----------------|-------------|---------------| 
D|----------------|-----------------|-------------|---------------| 
A|-0--------------|-----------------|-0--0--2--2--|-3--3--4--4----| 
E|----2--0--0--0--|--0--0--2--0--0--|-------------|---------------| 

Chorus 1 

  Q  Q  Q  Q     E   E  Q  Q Q 
G|-------------|----------------------| 
D|-0--0--0--0--|--2-------------------| 
A|-------------|------0--0--0--0------| 
E|-------------|----------------------| 


   Q  E E  Q  Q     Q  Q  E  E Q       Q  Q  Q  Q  Q 
G|----------------|------------------|----------------| 
D|-------2--0--0--|--0--2------------|----------------| 
A|--0--0----------|--------0--0--0---|--0-------------| 
E|----------------|------------------|-----2--0--0--0-| 

                     
  E   E   H    Wx2  E   E   H.     E    E    H.        
G|------------|-----||-----------|-------------------| 
D|------------|-----||-----------|-------------------| 
A|---------0--|-----||--------0--|-------------0-----| 
E|-0---2------|-----||0---2------|---0----2----------| 

                               
                                    
    E   E   E   E   E   E   E   E        
G|--2---0---1---2--------------------|| X1 
D|------------------2---1---0-------o|| 
A|------------------------------0---o|| 
E|-----------------------------------|| 

   Q   Q   Q  Q           E  E  Q  Q  Q 
G|--------------------|---------------------| 
D|-0---0---0--0-------|---2-----------------| 
A|--------------------|------0--0--0--0-----| 
E|--------------------|---------------------| 

  Q   E   E   Q   Q     Q   Q   E   E   Q 
G|--------------------|---------------------| 
D|-------------0---0--|--0---0---0---2------| 
A|-0---0---2----------|------------------0--| 
E|--------------------|---------------------| 


   Q  Q  Q  Q     E   E  Q   Q   Q     E   E  Q    H 
G|--------------|--------------------|-------------------| 
D|--------------|--------------------|-------------------| 
A|--0--0--0--0--|--0---2-------------|--------------0----| 
E|--------------|---------0---0---0--|--0---2--0---------| 

Chorus 2 
  Q   Q   Q   Q     Q   Q   Q   Q    Q   Q   Q   Q     E  E   Q   Q   Q 
G|----------------|-----------------|----------------|--------------------| 
D|----------------|-----------------|-0---0---0---0--|--2-----------------| 
A|-0---0---2---2--|--3---3---4---4--|----------------|-----0---0---0---0--| 
E|----------------|-----------------|----------------|--------------------| 


   Q   E  E   Q   Q     Q   Q   E  E  Q    Q  Q  Q  Q    E  E  Q  Q  Q 
G|--------------------|-------------------|-------------|------------------| 
D|-------------0---0--|--0---0---0--2-----|-------------|------------------| 
A|--0---0--2----------|----------------0--|-0--0--0--0--|-0--2-------------| 
E|--------------------|-------------------|-------------|-------0--0--0----| 


  Q   Q   Q   Q     E   E   Q   Q   Q     Q    Q  E   E   Q    Wx2 
G|----------------|---------------------|---------------------|--------| 
D|----------------|---------------------|---------------------|--------| 
A|-0---0---0---0--|--0------------------|------------------0--|--------| 
E|----------------|------2---0---0---0--|--0----0--0---2------|--------| 

Outro 
   Q..   E    Q..    E    Q.    E    Q.     E    E   H.     Q  Q   H 
G|-----------------|-----------------------|-5----6-------|------------| 
D|-/7-----0----7---|--5----0-----4----2----|--------------|------------| 
A|-----------------|-----------------------|--------------|------------| 
E|-----------------|-----------------------|----------0---|--3--5--\0--| 

                                     
   E  E  E  E   E  E    E  E        Q  Q  Q  Q    E  E  H      Wx2 
G|--2--0--1--2------------------|----------------|----------|-------| 
D|---------------2--1----0------|----------------|----------|-------| 
A|------------------------------|----------------|-------0--|-------| 
E|--------------------------0---|---\0--0--0--0--|--0--2----|-------| 


                                          ~ 
   Q  Q  Q  Q    E  E  H   E  E  Q  Q  Q 
G|--------------|----------|----------------| 
D|--------------|----------|----------------| 
A|--------------|-------0--|-------0--0--0--| 
E|-\0--0--0--0--|-0--2-----|-0--2-----------| 


  Q E  E  Q  Q   E  E  E  E  E  E  E  E   +W 
G|--------------|-2--0--1--2-------------|-----*| 
D|--------------|-------------2--1--0----|-----*| 
A|-0------------|----------------------0-|-(0)-*| 
E|---0--2--0--0-|------------------------|-----*| 
END 


Duration Legend 
--------------- 
W - whole; H - half; Q - quarter; E - 8th; S - 16th; 

Misc Legend 
----------- 
 |  - bar 
||  - double bar 
||o - repeat start 
o|| - repeat end 
*|  - double bar (ending) 
 :  - bar (freetime) 
 $  - Segno 
 &  - Coda 


*************************************************************************************** 
* Generated using Power Tab Editor by Brad Larsen - http://powertab.guitarnetwork.org * 
*************************************************************************************** 



************************************ 

| /    Slide up 
| \    Slide down 
| ~    Vibrato 
| *    Natural harmonic 
| (n)  Ghost note 
   

************************************ 
share this page

See Also: