E-Chords
Lemon Demon

Amnesia Was Her Name(Bass guitar)

Lemon Demon

Intro 
G|--------------------------------------------------------------------|  
D|--------------------------------------------------------------------| 
A|-2-----4-----2-0----------------------------------------------------| 
E|----2-----4------4---3-2--------------------------------------------| 

Verse 
G|--------------------------------------------------------------------|  
D|--------------------------------------------------------------------| 
A|-2-----4-----2-0----------------------------------------------------| 
E|----2-----4------4---3-2--------------------------------------------| 

Chorus 
G|--------------------------------------------------------------------|  
D|--------------------------------------------------------------------| 
A|-2-----4-----2-0----------------------------------------------------| 
E|----2-----4------4---3-2--------------------------------------------| 

Outro 
G|--------------------------------------------------------------------|  
D|--------------------------------------------------------------------| 
A|-2-----4-----2-0----------------------------------------------------| 
E|----2-----4------4--------------------------------------------------| 

roll up this ad to continue

share this page

See Also: