E-Chords
Kraftklub

Hallo Nacht(Bass guitar)

Kraftklub

roll up this ad to continue

Key: E
Intro 
(No bass in the intro) 

Chorus 
G|----------------------|------------------|----------------------|-----------------| 
D|----------------------|------------------|----------------------|-----------------| 
A|----------------------|--7b--7b--7b--7b--|--5-5--5-5--5-5--5-5--|--5b--5b--5b--3--| 
E|--5-5--5-5--5-5--5-5--|------------------|----------------------|-----------------| 

G|----------------------|------------------|----------------------|-------------------| 
D|----------------------|------------------|----------------------|-------------------| 
A|----------------------|--7b--7b--7b--7b--|--5-5--5-5--5-5--5-5--|--5b--5b--5b-------| 
E|--5-5--5-5--5-5--5-5--|------------------|----------------------|--------------3-5--| 

verse 1 
G|----------------------|--------------|----------------------|--------------| 
D|----------------------|--------------|----------------------|--------------| 
A|----------------------|--8--8--7--7--|--5-5--5-5--5-5--5-5--|--8--8--3--3--| 
E|--5-5--5-5--5-5--5-5--|--------------|----------------------|--------------| (x4) 

Chorus 
G|----------------------|------------------|----------------------|-----------------| 
D|----------------------|------------------|----------------------|-----------------| 
A|----------------------|--7b--7b--7b--7b--|--5-5--5-5--5-5--5-5--|--5b--5b--5b--3--| 
E|--5-5--5-5--5-5--5-5--|------------------|----------------------|-----------------| (x2) 

verse 2 
G|----------------------|--------|----------------------|--------------| 
D|----------------------|--------|----------------------|--------------| 
A|----------------------|--8--7--|--5-5--5-5--5-5--5-5--|--8--8--3--3--| 
E|--5-----------------5-|--------|----------------------|--------------| 

G|----------------------|--------------|----------------------|--------------| 
D|----------------------|--------------|----------------------|--------------| 
A|----------------------|--8--8--7--7--|--5-5--5-5--5-5--5-5--|--8--8--3--3--| 
E|--5-5--5-5--5-5--5-5--|--------------|----------------------|--------------|  

G|----------------------|----------------------|----------------------|----------------------| 
D|----------------------|----------------------|----------------------|----------------------| 
A|----------------------|----------------------|--5-5--5-5--5-5--5-5--|--6-6--6-6------------| 
E|--5-5--5-5--5-5--5-5--|--8-8--8-8--3-3--3-3--|----------------------|------------6-6--6-6--|  

G|----------------------|----------------------|----------------------|--------------| 
D|----------------------|----------------------|----------------------|--------------| 
A|----------------------|----------------------|--5-5--5-5--5-5--5-5--|--8--8--3--3--| 
E|--5-5--5-5--5-5--5-5--|--8-8--8-8--3-3--3-3--|----------------------|--------------|  

Chorus 
G|----------------------|------------------|----------------------|-----------------| 
D|----------------------|------------------|----------------------|-----------------| 
A|----------------------|--7b--7b--7b--7b--|--5-5--5-5--5-5--5-5--|--5b--5b--5b--3--| 
E|--5-5--5-5--5-5--5-5--|------------------|----------------------|-----------------| (x2) 

G|----------------|----------------|----------------|----------------| 
D|----------------|----------------|----------------|----------------| 
A|----------------|----------------|--5-5--5--5--5--|--8-8--8--8--8--| 
E|--5-5--5--5--5--|--0-0--0--0--0--|----------------|----------------| 

G|---------------------|----------------|----------------|----------------| 
D|---------------------|----------------|----------------|----------------| 
A|--12-12--12--12--12--|--7-7--7--7--7--|--5-5--5--5--5--|--3-3--3--3--2--| 
E|---------------------|----------------|----------------|----------------| 

Bridge 
G|----------------|---------|----------------|----------| 
D|----------------|---------|----------------|----------| 
A|-0--------------|--8---7--|--5-------------|--8---10--| 
E|----------------|---------|----------------|----------| 

G|----------------|---------|----------------|--------------| 
D|----------------|---------|----------------|--------------| 
A|-12-------------|--8---7--|--5-------------|--8--8--3--3--| 
E|----------------|---------|----------------|--------------| 

verse 3 
G|----------------------|--------------|----------------------|--------------| 
D|----------------------|--------------|----------------------|--------------| 
A|----------------------|--8--8--7--7--|--5-5--5-5--5-5--5-5--|--8--8--3--3--| 
E|--5-5--5-5--5-5--5-5--|--------------|----------------------|--------------| (x2) 

Instrumental 
G|-----------------| 
D|-----------------| 
A|--5b--5b--5b--3--| 
E|-----------------| 

Chorus 
G|----------------------|------------------|----------------------|-----------------| 
D|----------------------|------------------|----------------------|-----------------| 
A|----------------------|--7b--7b--7b--7b--|--5-5--5-5--5-5--5-5--|--5b--5b--5b--3--| 
E|--5-5--5-5--5-5--5-5--|------------------|----------------------|-----------------| (x2) 

G|----------------|----------------|----------------|----------------| 
D|----------------|----------------|----------------|----------------| 
A|----------------|----------------|--5-5--5--5--5--|--8-8--8--8--8--| 
E|--5-5--5--5--5--|--0-0--0--0--0--|----------------|----------------| 

G|---------------------|----------------|----------------|----------------| 
D|---------------------|----------------|----------------|----------------| 
A|--12-12--12--12--12--|--7-7--7--7--7--|--5-5--5--5--5--|--3-3--3--3--2--| 
E|---------------------|----------------|----------------|----------------| 

G|-----------|----------|----------|----------| 
D|-----------|----------|----------|----------| 
A|--12(x12)--|--7(x12)--|--5(x12)--|--8(x12)--| 
E|-----------|----------|----------|----------| 

G|-----------|----------|----------|---------------|-------| 
D|-----------|----------|----------|---------------|-------| 
A|--12(x12)--|--7(x12)--|--5(x12)--|--3(x9)-2(x3)--|--0----| 
E|-----------|----------|----------|---------------|-------| 


************************************ 

| b   Bend 

************************************ 
share this page

See Also: