E-Chords
Klaus mit Foch

S?uchaj Mnie Albo Nie(Bass guitar)

Klaus mit Foch

roll up this ad to continue

Intro 
(00:06) 
G|------------|----------------|-------------|----------------| 
D|-2----------|-2----------0-h2|-2-----------|-2----------0-h2| 
A|-------2----|--------2-------|--------2----|--------2-------| 
E|---0-3---1--|----0-3---1-----|----0-3---1--|----0-3---1-----| 

G|-------------|----------------|-------------|--------------| 
D|-2-----------|-2----------0-h2|-2-----------|-2----------0-| 
A|--------2----|--------2-------|--------2----|--------2-----| 
E|----0-3---1--|----0-3---1-----|----0-3---1--|----0-3---1---| 

G|-------------|--------------|-------------|--------------| (x3) 
D|-2-----------|-2----------0-|-2-----------|-2----------0-| 
A|--------2----|--------2-----|--------2----|--------2-----| 
E|----0-3---1--|----0-3---1---|----0-3---1--|----0-3---1---| 

G|-------------|--------------|-------------|------------.-| 
D|-2-----------|-2----------0-|-2-----------|-2----------0-| 
A|--------2----|--------2-----|--------2----|--------2-----| 
E|----0-3---1--|----0-3---1---|----0-3---1--|----0-3---1---| 

verse 1/Pre-Chorus 
G|-------------|------------.-|-------------|------------.-| (x3) 
D|-2-----------|-2----------0-|-2-----------|-2----------0-| 
A|--------2----|--------2-----|--------2----|--------2-----| 
E|----0-3---1--|----0-3---1---|----0-3---1--|----0-3---1---| 

G|-------------|------------.-|-------------|------------.--| 
D|-2-----------|-2----------0-|-2-----------|-2----------0--| 
A|--------2----|--------2-----|--------2----|--------2------| 
E|----0-3---1--|----0-3---1---|----0-3---1--|----0-3---1----| 

Chorus 
(01:08 ~ 01:32 - No Bass) 

? I think the Chorus has no bass. 

Interlude 
(01:33) 
G|------------|--------------|-------------|--------------| 
D|-2----------|-2----------0-|-2-----------|-2----------0-| 
A|-------2----|--------2-----|--------2----|--------2-----| 
E|---0-3---1--|----0-3---1---|----0-3---1--|----0-3---1---| 

G|-------------|--------------|-------------|------------.-| 
D|-2-----------|-2----------0-|-2-----------|-2----------0-| 
A|--------2----|--------2-----|--------2----|--------2-----| 
E|----0-3---1--|----0-3---1---|----0-3---1--|----0-3---1---| 

verse 2/Pre-Chorus 
G|-------------|------------.-|-------------|------------.-| (x3) 
D|-2-----------|-2----------0-|-2-----------|-2----------0-| 
A|--------2----|--------2-----|--------2----|--------2-----| 
E|----0-3---1--|----0-3---1---|----0-3---1--|----0-3---1---| 

G|-------------|------------.-|-------------|------------.--| 
D|-2-----------|-2----------0-|-2-----------|-2----------0--| 
A|--------2----|--------2-----|--------2----|--------2------| 
E|----0-3---1--|----0-3---1---|----0-3---1--|----0-3---1----| 

Chorus 
(02:10 ~ 02:34 - No Bass) 

? I think the Chorus has no bass. 

Interlude 
(02:35) 
G|------------|--------------|-------------|--------------|  
D|-2----------|-2----------0-|-2-----------|-2----------0-| 
A|-------2----|--------2-----|--------2----|--------2-----| 
E|---0-3---1--|----0-3---1---|----0-3---1--|----0-3---1---| 

G|-------------|--------------|-------------|--------------| (x2) 
D|-2-----------|-2----------0-|-2-----------|-2----------0-| 
A|--------2----|--------2-----|--------2----|--------2-----| 
E|----0-3---1--|----0-3---1---|----0-3---1--|----0-3---1---| 

G|-------------|--------------|-------------|------------.-| 
D|-2-----------|-2----------0-|-2-----------|-2----------0-| 
A|--------2----|--------2-----|--------2----|--------2-----| 
E|----0-3---1--|----0-3---1---|----0-3---1--|----0-3---1---| 

Outro 
G|-------------|------------.-|-------------|------------.-| (x2) 
D|-2-----------|-2----------0-|-2-----------|-2----------0-| 
A|--------2----|--------2-----|--------2----|--------2-----| 
E|----0-3---1--|----0-3---1---|----0-3---1--|----0-3---1---| 

G|-.| 
D|-2| 
A|--| 
E|--| 


**************************************** 

| h Hammer-On 
| . Staccato  

**************************************** 
share this page

See Also: