E-Chords
Klaus mit Foch

Ob?udni Idole(Bass guitar)

Klaus mit Foch

roll up this ad to continue

Intro 
(00:06) 
G|--------------|--------------|--------------|--------------| (x12) 
D|--------------|--------------|--------------|--------------| 
A|-5--5-5--3-5-3|-5--5-5--3-5-3|-5--5-5--3-5-3|-5--5-5--3-5-3| 
E|--------------|--------------|--------------|--------------| 

verse 1 
G|--------------|--------------|--------------|--------------|  
D|--------------|--------------|--------------|--------------| 
A|-5--5-5--3-5-3|-5--5-5--3-5-3|-5--5-5--3-5-3|-5--5-5--3-5-3| 
E|--------------|--------------|--------------|--------------| 

G|--------------|--------------|--------------|--------------| 
D|-3--3-3----3--|-3--3-3----3--|-3--3-3----3--|-3--3-3----3--| 
A|---------6---6|---------6---6|---------6---6|---------6---6| 
E|--------------|--------------|--------------|--------------| 

Interlude 
G|--------------|--------------|--------------|--------------|  
D|--------------|--------------|--------------|--------------| 
A|-5--5-5--3-5-3|-5--5-5--3-5-3|-5--5-5--3-5-3|-5--5-5--3-5-3| 
E|--------------|--------------|--------------|--------------| 

verse 2 
G|--------------|--------------|--------------|--------------|  
D|--------------|--------------|--------------|--------------| 
A|-5--5-5--3-5-3|-5--5-5--3-5-3|-5--5-5--3-5-3|-5--5-5--3-5-3| 
E|--------------|--------------|--------------|--------------| 

G|--------------|--------------|--------------|--------------| 
D|-3--3-3----3--|-3--3-3----3--|-3--3-3----3--|-3--3-3----3--| 
A|---------6---6|---------6---6|---------6---6|---------6---6| 
E|--------------|--------------|--------------|--------------| 

Solo 
G|-----------|-----------|-----------|-----------| (x3) 
D|-3---3-3---|-2---2-2---|-----------|-----------| 
A|-----------|-----------|-----------|-----------| 
E|-----------|-----------|-0---0-0---|-0---0-0---| 

G|-----------|-----------|-----------|-----------|  
D|-3---3-3---|-----------|-----------|-----------| 
A|-----------|-5---5-5---|-----------|-----------| 
E|-----------|-----------|-0---0-0---|-0---0-0---| 

Interlude 
G|--------------|--------------|--------------|--------------| (x6) 
D|--------------|--------------|--------------|--------------| 
A|-5--5-5--3-5-3|-5--5-5--3-5-3|-5--5-5--3-5-3|-5--5-5--3-5-3| 
E|--------------|--------------|--------------|--------------| 

verse 3 
G|--------------|--------------|--------------|--------------|  
D|--------------|--------------|--------------|--------------| 
A|-5--5-5--3-5-3|-5--5-5--3-5-3|-5--5-5--3-5-3|-5--5-5--3-5-3| 
E|--------------|--------------|--------------|--------------| 

G|--------------|--------------|--------------|--------------| 
D|-3--3-3----3--|-3--3-3----3--|-3--3-3----3--|-3--3-3----3--| 
A|---------6---6|---------6---6|---------6---6|---------6---6| 
E|--------------|--------------|--------------|--------------| 

Interlude 
G|--------------|--------------|--------------|--------------|  
D|--------------|--------------|--------------|--------------| 
A|-5--5-5--3-5-3|-5--5-5--3-5-3|-5--5-5--3-5-3|-5--5-5--3-5-3| 
E|--------------|--------------|--------------|--------------| 

verse 4 
G|--------------|--------------|--------------|--------------|  
D|--------------|--------------|--------------|--------------| 
A|-5--5-5--3-5-3|-5--5-5--3-5-3|-5--5-5--3-5-3|-5--5-5--3-5-3| 
E|--------------|--------------|--------------|--------------| 

G|--------------|--------------|--------------|--------------| 
D|-3--3-3----3--|-3--3-3----3--|-3--3-3----3--|-3--3-3----3--| 
A|---------6---6|---------6---6|---------6---6|---------6---6| 
E|--------------|--------------|--------------|--------------| 

Solo 
G|-----------|-----------|-----------|-----------| (x3) 
D|-3---3-3---|-2---2-2---|-----------|-----------| 
A|-----------|-----------|-----------|-----------| 
E|-----------|-----------|-0---0-0---|-0---0-0---| 

G|-----------|-----------|-----------|-----------|  
D|-3---3-3---|-----------|-----------|-----------| 
A|-----------|-5---5-5---|-----------|-----------| 
E|-----------|-----------|-0---0-0---|-0---0-0---| 

G|-----------|-----------|-----------|-----------| (x3) 
D|-3---3-3---|-2---2-2---|-----------|-----------| 
A|-----------|-----------|-----------|-----------| 
E|-----------|-----------|-0---0-0---|-0---0-0---| 

G|-----------|-----------|-----------|-------------|  
D|-3---3-3---|-----------|-----------|-------------| 
A|-----------|-5---5-5---|-----------|-------------| 
E|-----------|-----------|-0---0-0---|-0---0-4///12| 

Outro 
G|--------------|--------------|-----------|-------------| (x2) 
D|--------------|--------------|-----------|-------------| 
A|--------------|--------------|-----------|-------------| 
E|-13---13-13---|-12---12-12---|-0---0-0---|-0---0-4///12| 

G|--------------|--------------|-------------|-------------|  
D|--------------|--------------|-------------|-------------| 
A|--------------|--------------|-------------|-------------| 
E|-13---13-13---|-12---12-12---|-0---0-4///12|-0---0-4///12| 

G|--------------|--------------|-------------|-------------|  
D|--------------|--------------|-------------|-------------| 
A|--------------|--------------|-------------|-------------| 
E|-13---13-13---|-10---10-10---|-0---0-4///12|-0---0-4///12| 

G|--------------|--------------|-------------|-------------|  
D|--------------|--------------|-------------|-------------| 
A|--------------|--------------|-------------|-------------| 
E|-13---13-13---|-12---12-12---|-0---0-4///12|-0---0-4///12| 

G|--------------|--------------|-------------|-------------|  
D|--------------|--------------|-------------|-------------| 
A|--------------|--------------|-------------|-------------| 
E|-13---13-13---|-12---12-12---|-0---0-4///12|-0---0-4///12| 

G|--------------|--------------|-------------|-------------|  
D|--------------|--------------|-------------|-------------| 
A|--------------|--------------|-------------|-------------| 
E|-13---13-13---|-12---12-12---|-0---0-4///12|-0---0-4///12| 

G|--------------|--------------|-------------|-------------|  
D|--------------|--------------|-------------|-------------| 
A|--------------|--------------|-------------|-------------| 
E|-13---13-13---|-10---10-10---|-0---0-4///12|-0---0-4///12| 


******************************* 

| /// Long Slide Up  

******************************* 
share this page

See Also: