E-Chords
Kasabian

Put Your Life On It(Bass guitar)

Kasabian

G|---------------------------------------------------------------------------| 
D|-------------------------------------4-7-----4-7-----4-7-----4-7-----2-5---| 
A|-----2-5-----2-5-----2-5-----2-5-5-5-----5-5-----5-5-----5-5-----3-3-------| 
E|-3-3-----3-3-----3-3-----3-3-----------------------------------------------| 

G|---------------------------------------------------------------------------| 
D|-----2-5-----2-5-----2-5-----2-5-----2-5-----2-5-----2-5-------------------| 
A|-3-3-----3-3-----3-3-------------------------------------------------------| 
E|-------------------------3-3-----3-3-----3-3-----3-3-----------------------| 

roll up this ad to continue

share this page

See Also: