E-Chords
Kabaka Pyramid

Well Done(Bass guitar)

Kabaka Pyramid

roll up this ad to continue

Intro 2x 
G|---------------------------------------------------------------------------| 
D|---------------------------------------------------------------------------| 
A|-9-9-----9-9----9-9--------------------------------------------------------| 
E|-----11------11-----11--11----7--7---4------4--7---------------------------| 

G|---------------------------------------------------------------------------| 
D|---------------------------------------------------------------------------| 
A|-9-9-----9-9----9-9--------------------------------------------------------| 
E|-----11------11-----11--11----7--7---4------4--7--4------------------------| 

Verse several repetitions during verse.  
G|---------------------------------------------------------------------------| 
D|---------------------------------------------------------------------------| 
A|-6---------------------6-------6--6---------------------6------------------| 
E|------8--7--4---4--7-----7-----------8--7--4-----4--7------7---------------| 

Chorus 
G|---------------------------------------------------------------------------| 
D|---------------------------------------------------------------------------| 
A|-9-9-----9-9----9-9--------------------------------------------------------| 
E|-----11------11-----11--11----7--7---4------4--7---------------------------| 

G|---------------------------------------------------------------------------| 
D|---------------------------------------------------------------------------| 
A|-9-9-----9-9----9-9--------------------------------------------------------| 
E|-----11------11-----11--11----7--7---4------4--7--4------------------------| 
share this page

See Also: