E-Chords
Joe Beal

Jingle Bell Rock(Bass guitar)

Joe Beal

roll up this ad to continue

Key: E
     E  E  Q    E  E  Q       E  E  E  E  H           E  E  E  E  Q    Q       
G||--5--5--5----4--4--4----|--2--4--2--------------|--2--4--2---------------|  
D||------------------------|-----------2--L--------|-----------2--L----5----|  
A||------------------------|-----------------------|------------------------|  
E||------------------------|-----------------------|------------------------|  


  E  E  Q    H           E  Q    E  E  Q    E     E  E  Q    H           
--2--4--2-------------|----------------2-------|----------------------|  
-------------3--------|-----2----3--5-------5--|-----2--3----5--------|  
----------------------|--5---------------------|--5-------------------|  
----------------------|------------------------|----------------------|  


  Q    E  E  E  E  Q       Q    E  E  H           E  E  Q    E  E  Q       
-------2--1--2--1--2----|--2-------------------|--5--5--5----4--4--4----|  
------------------------|-------1--0--L--------|------------------------|  
------------------------|----------------------|------------------------|  
------------------------|----------------------|------------------------|  


  E  E  E  E  H           E  E  Q    Q    Q       E  E  Q    H           
--2--4--2--------------|--2--4--2--------------|--2--4--2-------------|  
-----------2--L--------|-------------2----5----|-------------3--------|  
-----------------------|-----------------------|----------------------|  
-----------------------|-----------------------|----------------------|  


  E  Q    E  E  Q    E     E  E  Q    H           Q    E  E  E  Q    E     
----------------2-------|----------------------|-------2--2--4-------5--|  
-----2----3--5-------5--|-----2--3----5--------|----------------5-------|  
--5---------------------|--5-------------------|------------------------|  
------------------------|----------------------|------------------------|  


  H.           E  E     E  Q    E  Q    E  E     E  Q    E  Q    E  E     
--L------------5--5--|--5--7----5--L----2--5--|--5--7----5--L----L--5--|  
---------------------|------------------------|------------------------|  
---------------------|------------------------|------------------------|  
---------------------|------------------------|------------------------|  


  Q    Q    Q    Q       H.           E  E     E  Q    E  Q    E  E     
--5----4----2---------|---------------5--5--|--5--7----5--L----2--5--|  
-----------------5----|--2------------------|------------------------|  
----------------------|---------------------|------------------------|  
----------------------|---------------------|------------------------|  


  Q.     E  H           E  E  Q    E  E  E  E     E  Q    E  H           
--7------5--L--------|-------------2--2--2--2--|--4--2----------------|  
---------------------|-----5--5----------------|----------5--L--------|  
---------------------|-------------------------|----------------------|  
---------------------|-------------------------|----------------------|  


  E  E  Q    E  E  Q       E  E  E  E  H           E  E  Q    Q    Q       
--5--5--5----4--4--4----|--2--4--2--------------|--2--4--2--------------|  
------------------------|-----------2--L--------|-------------2----5----|  
------------------------|-----------------------|-----------------------|  
------------------------|-----------------------|-----------------------|  


  W                   Q    Q    E  E  E  E     E  E  E  E  H           
--2----------------|--2----5----7--7--5--5--|--1--2--5--7--L--------|  
-------------------|------------------------|-----------------------|  
-------------------|------------------------|-----------------------|  
-------------------|------------------------|-----------------------|  


  Q    E  E  E  E  Q       H.           Q         Q    E  E  E  E  Q       
-------5--2--4--2-------|--5------------------||-------5--2--4--5--7----|  
-------------------5----|--------------------*||------------------------|  
------------------------|--------------------*||------------------------|  
------------------------|---------------------||------------------------|  


  W                   H.           Q        
--5----------------|--5-----------------||  
-------------------|--------------------||  
-------------------|--------------------||  
-------------------|--------------------||  




Duration Legend  
---------------  
W - whole  
H - half  
Q - quarter  
E - 8th  
share this page

See Also: