E-Chords
JEFF the Brotherhood

Sixpack(Bass guitar)

JEFF the Brotherhood


Main Riff // Verse                 Prechorus 
d|-------9-12-9-------------||-----55555555----------------------| 
A|--9-12--------12-9-7-7-9~-||X4---55555555----------------------| 
D|--0-0---------0--0-0-0-0~-||-----55555555----------------------| 
'Let's load the car up...'         'And I don't wanna go back.' 

Chorus 
d|--------------------------------------------55555555-----------| 
A|--7h9--7h9--7h9-7h9--7h9--7h9-7h9--7h9--7h9-55555555-----------| 
D|--0----0----0---0----0----0---0----0----0---55555555-----------| 
'oh ooh oh ooh oh oh...' 

d|-----------------------------7----------------55555555---------| 
A|--7h9--7h9--7h9-7h9--7h9--7h9-9-7h9--7h9--7h9-55555555---------| 
D|--0----0----0---0----0----0-----0----0----0---55555555---------| 
'oh ooh oh ooh oh oh...' 

d|--5-0-0-5-0-0-5-0-5-0-0-5-0-0-5-0-5----------------------------| 
A|--5-0-0-5-0-0-5-0-5-0-0-5-0-0-5-0-5----------------------------| 
D|--5-0-0-5-0-0-5-0-5-0-0-5-0-0-5-0-5----------------------------| 

Repeat Verse // Prechorus 
Repeat Chorus 

Bridge 
d|--99999999777777779999999955555555-----------------------------| 
A|--99999999777777779999999955555555-----------------------------| 
D|--99999999777777779999999955555555-----------------------------| 
'It's so hot...' 

d|--9999999977777777999999993333333355555555---------------------| 
A|--9999999977777777999999993333333355555555---------------------| 
D|--9999999977777777999999993333333355555555---------------------| 
'So so so so so...' 

d|--2222222255555555---------------------------------------------| 
A|--2222222255555555---------------------------------------------| 
D|--2222222255555555---------------------------------------------| 
'ooooooo wahhhhhh' 

Repeat Chorus 
END.  

roll up this ad to continue

share this page

See Also: