E-Chords
Ikue Sakakibara

Lonely Wind(Bass guitar)

Ikue Sakakibara

roll up this ad to continue

Intro 
G|------------|------------|------------|------------| 
D|------------|------------|------------|------------| 
A|-------5---5|------------|-------5---5|------------| 
E|-5---5------|-3---3-3---3|-5---5------|-3---3-3---3| 

G|------------|------------|---------|---------| 
D|-------3---3|-------1---1|---------|---------| 
A|-3---3------|-1---1------|-0-------|-5-------| 
E|------------|------------|---------|---------| 

verse 1 
G|-----------|-----------|-----------|-------------| 
D|-----------|-----------|-----------|-------------| 
A|-----------|-2---2-2---|-----------|-------------| 
E|-3---3-3---|-----------|-0---0-0---|-0---0-0--3-4| 

G|-----------|-----------|-----------|-----------| 
D|-----------|-----------|-----------|-----------| 
A|-----------|-5---5-5---|-----------|-------5---| 
E|-5---5-5---|-----------|-3---3-3---|-5---5-----| 

Pre-Chorus 
G|-----------|-----------|-----------|-----------| 
D|-----------|-----------|-----------|-----------| 
A|-----------|-2---2-2---|-----------|-----------| 
E|-3---3-3---|-----------|-0---0-0---|-0---0-0---| 

G|-----------|-----------|-----------|-----------|-----------| 
D|-----------|-----------|-----------|-----------|-----------| 
A|-----------|-5---5-5---|-------3---|-----------|-----0---1-| 
E|-5---5-5---|-----------|-5---5-----|-3---3-3---|-3---------| 

Chorus 
G|------------|------------|---------|-----------| 
D|------------|------------|---------|-----------| 
A|-2---2-2----|-2---2-2---2|-3-------|-----3-3-3-| 
E|-----------2|------------|---------|-----------| 

G|------------|------------|---------|------------| 
D|------------|------------|---------|------------| 
A|-2---2-2----|-2---2-2---2|-3-------|-----3-3-3--| 
E|-----------2|------------|---------|-----------3| 

G|-----------|-----------|-----------|-----------| 
D|-----------|-----------|-----------|-----------| 
A|-----------|-5---5-5---|-----------|-----------| 
E|-5---5-5---|-----------|-3---3-2---|-0---0-0---| 

G|-----------|----------| 
D|-----------|----------| 
A|-----------|-5--5-----| 
E|-5---5-5---|----------| 

G|-----------|-----------| x2 
D|-----------|-----------| 
A|-----------|-------5---| 
E|-3---3-3---|-5---5-----| 

Interlude 
G|------------|------------|------------|------------| 
D|------------|------------|------------|------------| 
A|-------5---5|------------|-------5---5|------------| 
E|-5---5------|-3---3-3---3|-5---5------|-3---3-3---3| 

G|------------|------------|---------|---------| 
D|-------3---3|-------1---1|---------|---------| 
A|-3---3------|-1---1------|-0-------|-5-------| 
E|------------|------------|---------|---------| 

verse 2 
G|-----------|-----------|-----------|-----------| 
D|-----------|-----------|-----------|-----------| 
A|-----------|-2---2-2---|-----------|-----------| 
E|-3---3-3---|-----------|-0---0-0---|-0---0-0---| 

G|-----------|-----------|-----------|-----------| 
D|-----------|-----------|-----------|-----------| 
A|-----------|-5---5-5---|-----------|-------5---| 
E|-5---5-5---|-----------|-3---3-3---|-5---5-----| 

Pre-Chorus 
G|-----------|-----------|-----------|-----------| 
D|-----------|-----------|-----------|-----------| 
A|-----------|-2---2-2---|-----------|-----------| 
E|-3---3-3---|-----------|-0---0-0---|-0---0-0---| 

G|-----------|-----------|-----------|-----------|-----------| 
D|-----------|-----------|-----------|-----------|-----------| 
A|-----------|-5---5-5---|-------3---|-----------|-----0---1-| 
E|-5---5-5---|-----------|-5---5-----|-3---3-3---|-3---------| 

Chorus 
G|------------|------------|---------|-----------| 
D|------------|------------|---------|-----------| 
A|-2---2-2----|-2---2-2---2|-3-------|-----3-3-3-| 
E|-----------2|------------|---------|-----------| 

G|------------|------------|---------|------------| 
D|------------|------------|---------|------------| 
A|-2---2-2----|-2---2-2---2|-3-------|-----3-3-3--| 
E|-----------2|------------|---------|-----------3| 

G|-----------|-----------|-----------|-----------| 
D|-----------|-----------|-----------|-----------| 
A|-----------|-5---5-5---|-----------|-----------| 
E|-5---5-5---|-----------|-3---3-2---|-0---0-0---| 

G|-----------|----------|-----------|-----------| 
D|-----------|----------|-----------|-----------| 
A|-----------|-5--5-----|-----------|-----0---1-| 
E|-5---5-5---|----------|-3---3-3---|-3---------| 

G|------------|------------|---------|-----------| 
D|------------|------------|---------|-----------| 
A|-2---2-2----|-2---2-2---2|-3-------|-----3-3-3-| 
E|-----------2|------------|---------|-----------| 

G|------------|------------|---------|------------| 
D|------------|------------|---------|------------| 
A|-2---2-2----|-2---2-2---2|-3-------|-----3-3-3--| 
E|-----------2|------------|---------|-----------3| 

G|-----------|-----------|-----------|-----------| 
D|-----------|-----------|-----------|-----------| 
A|-----------|-5---5-5---|-----------|-----------| 
E|-5---5-5---|-----------|-3---3-2---|-0---0-0---| 

G|-----------|----------| 
D|-----------|----------| 
A|-----------|-5--5-----| 
E|-5---5-5---|----------| 

G|-----------|-----------| x2 
D|-----------|-----------| 
A|-----------|-------5---| 
E|-3---3-3---|-5---5-----| 

Outro 
G|----------|----------|--| 
D|-3---3----|----------|--| 
A|----------|-3---3----|--| 
E|----------|----------|-3| 
share this page

See Also: