E-Chords
Frankie Cosmos

Sappho(Bass guitar)

Frankie Cosmos

roll up this ad to continue

Verse 

G|---------------------| 
D|---------------------|     
A|------2--2-3--3-5--5-| 
E|3~--3----------------| (x2) 

G|-----------------------------------| 
D|-----------------------------------|     
A|------2--2-3--3--5-5-5-5-5-5-5-5-5-| 
E|3~--3------------------------------| 


Chorus 

G|-------------------------------------| 
D|-------------------------------------| 
A|---------2~--2-2~--3~--3-3~--5~--5-5~| 
E|3~--3-3~-----------------------------| 

G|---------------------------------------------------------------------| 
D|---------------------------------------------------------------------| 
A|-----------------2-2-2-2-2-2-2-2--3-3-3-3-3-3-3-3--5-5-5-5-5-5-5-5-5-| 
E|-3-3-3-3-3-3-3-3-----------------------------------------------------| 

Bridge 

G|--------------------------------------------------------------| 
D|-7-7--7-5-5--5-2-2--2-0-0--0----------------------------------| 
A|-----------------------------3-3-3-3-3-3-3-3--5-5-5-5-5-5-5-5-| 
E|--------------------------------------------------------------| 

G|---------------------------------------------------------------------| 
D|---------------------------------------------------------------------| 
A|-----------------2-2-2-2-2-2-2-2--3-3-3-3-3-3-3-3--5-5-5-5-5-5-5-5-5-| 
E|-3-3-3-3-3-3-3-3-----------------------------------------------------| 

verse 2 

G|----------------------| 
D|----------------------|     
A|-------2--2-3--3-5--5-| 
E|-3~--3----------------| (x2) 

G|-----------------------------------| 
D|-----------------------------------|     
A|------2--2-3--3--5-5-5-5-5-5-5-5-5-| 
E|3~--3------------------------------| 

Chorus 2 

There's no bass on the second Chorus, but you can play it like the first one 

Ending 

G|----------------------------------------------------------------------| 
D|----------------------------------------------------------------------| 
A|------------------2-2-2-2-2-2-2-2--3-3-3-3-3-3-3-3--5-5-5-5-5-5-5-5-5-| 
E|-3-3-3-3-3-3-3-3------------------------------------------------------| 


************************************ 

| ~  Vibrato 

************************************ 
share this page

See Also: