E-Chords
Flying Lotus

Dance Of The Pseudo Nymph(Bass guitar)

Flying Lotus

roll up this ad to continue


Main Riff 
G|-------6------7-------9-------| 
D|------4------5-------7-7------| 
A|-0---2---2--3--3----5---------| 
E|--0---------------00-----0-0--| 



During the main riff a clean bass overlays this 
G|-12-11-7-6-5-----| 
D|------------5----| 
A|-------------3-5-| 
E|-----------------| 

Solo Section (leads in from the overlay) 
G|-------------------------------| 
D|----------0----------------4-0-| 
A|---------------7h9-5-----------| 
E|-0-2-3h5-7--5h7-----5-7-3-0----| 

1:03 
G|----------------------------| 
D|---9-----------4---2--4-0---| 
A|--7--10-7h8-2---5---2-----2-| 
E|-0--8--0-----2-------------0|  

G|-12-11-7-6-5-----| 
D|------------5----| 
A|-------------3-5-| 
E|-----------------| 

1:09 
G|----------------------------| 
D|---9-----------4---2--4-0---| 
A|--7--10-7h8-2---5---2-----2-| 
E|-0--8--0-----2-------------0| 


1:23 
G|--------------| 
D|---------4-0--| 
A|------0-2-----| 
E|-0-2-3------0-| 

Outro 
G|---| 
D|-2-| 
A|--0| 
E|---| 

 
share this page

See Also: