E-Chords
Faith no More

Take Power Back(Bass guitar)

Faith no More

roll up this ad to continue

 

G|--------|    |-----11-11-11-12-12-12-14-14-12-11--|---14-14-14-15-15-15-17-17-15-14--| 
D|--------|    |------------------------------------|----------------------------------| 
A|--5-5---|    |------------------------------------|----------------------------------| 
E|--------|8x  |------------------------------------|----------------------------------| 


|---------------|---------------| 
|---------------|---------------| 
|---------------|---------------| 
|-3-3-3-3-3-3-3-|-1-1-1-1-1-1-1-| 


|--------|    |-----11-11-11-12-12-12-14-14-12-11--|---14-14-14-15-15-15-17-17-15-14--| 
|--------|    |------------------------------------|----------------------------------| 
|--5-5---|    |------------------------------------|----------------------------------| 
|--------|5x  |------------------------------------|----------------------------------| 

|---------------|---------------| 
|---------------|---------------| 
|---------------|---------------| 
|-3-3-3-3-3-3-3-|-1-1-1-1-1-1-1-| 

verse 1> 

|---------------|---------------|---------------|---------------| 
|---------------|---------------|---------------|---------------| 
|---------------|---------------|---------------|---------------| 
|-5-5-5-5-5-5-5-|-3-3-3-3-3-3-3-|-3-3-3-3-3-3-3-|-1-1-1-1-1-1-1-| 

|-----------------|-----------------|-----------------|---------------|---------------|---| 
|-----------------|-----------------|-----------------|---------------|---------------|---| 
|-----------------|-----------------|-----------------|---------------|---------------|-10| 
|-5-5-5-5-5-5-5-5-|-3-3-3-3-3-3-3-3-|-3-3-3-3-3-3-3-3-|-3-3-3-3-3-3-3-|-3-3-3-3-3-3-3-|---| 

 

|----------|---------|---------------|----------|-----------|-------------|---------------| 
|----------|---------|---------------|----------|-----------|-------------|---------------| 
|10-8------|-7-------|-0-0-0-0-0-0-0-|-10-------|-10-8------|-0-0-0-0-0-0-|-0-0-0-0-0-0-0-| 
|----------|---------|---------------|----------|-----------|-------------|---------------| 


verse 2> 

|---------------|---------------|---------------|---------------| 
|---------------|---------------|---------------|---------------| 
|---------------|---------------|---------------|---------------| 
|-3-3-3-3-3-3-3-|-1-1-1-1-1-1-1-|-5-5-5-5-5-5-5-|-5-5-5-5-5-5-5-| 

|---------------|---------------|---------------|---------------| 
|---------------|---------------|---------------|---------------| 
|---------------|---------------|---------------|---------------| 
|-3-3-3-3-3-3-3-|-1-1-1-1-1-1-1-|-5-5-5-5-5-5-5-|-3-3-3-3-3-3-3-| 

 

 
verse 1> 
 

  


|---------------|---------------|---------------|---------------| 
|---------------|---------------|---------------|---------------| 
|---------------|---------------|---------------|---------------| 
|-3-3-3-3-3-3-3-|-1-1-1-1-1-1-1-|-5-5-5-5-5-5-5-|-5-5-5-5-5-5-5-|2x 


|---------------|---------------|---------------|---------------| 
|---------------|---------------|---------------|---------------| 
|---------------|---------------|---------------|---------------| 
|-3-3-3-3-3-3-3-|-1-1-1-1-1-1-1-|-5-5-5-5-5-5-5-|-3-3-3-3-3-3-3-|4x 

|--------|     
|--------|     
|--5-5---|     
|--------| 
share this page

See Also: