E-Chords
Faith no More

Got That Feeling(Bass guitar)

Faith no More

roll up this ad to continue

----------------------------------------------
 - 
----------------------------------------------

Tabbed By : Cory Woodger	
e-mail: [email protected]

Tuning: Standard

Intro/Chorus
G|---------------------------------------------------------------------------|
D|---------------------------------------------------------------------------|
A|---------------------------------------------------------------------------|
E|-2--5--2h5-2h5-------2--5--2h5-2h5-------2--5--2h5-2h5-6-6-5--2--5--2h5-2h5|

Pre Verse          (3x)
G|--------------------|------------------------------------|
D|*------------------*|------------------------------------|
A|*---7--6--5--4--3--*|-2-2-2-2--2-2-2-2--2-2-2-2--2-2-2-2-|
E|--------------------|------------------------------------|

Verse
G|---------------------------------|
D|---------------------------------|
A|---------------------------------|
E|-0-0-----2--2--2--3-2--0-2------1|

Outro
G|---------------------------------------------------------------------------|
D|---------------------------------------------------------------------------|
A|-2-2-2-2--2-2-2-2--2-2-2-2--2-2-2-2--2-2-2-2--2-2-2-2--2-------------------|
E|----------------------------------------------------------3--5--3---2\-----|


Structure:

Intro: 1x
Pre Verse: 1x
Verse: 8x
Chorus: 1x
Pre Verse: 1x
Verse: 8x
Chorus: 1x
Pre Verse: 2x
Outro: 1x

| /  slide up
| \  slide down
| h  hammer-on
| p  pull-off
| ~  vibrato
| +  harmonic
| x  Mute note
===============================================================================
share this page

See Also: