E-Chords
Everclear

Wonderful(Bass guitar)

Everclear

roll up this ad to continue

  
band: 
authour: baz ([email protected])
notes: pick :P

W W W . B A S S C R A W L E R . C O M :

intro - when the bass comes in just play this with the chords!

G|-----------|
D|-----------|
A|---5-3-5---|
E|-3---------| 

verse

G|------------------------|
D|------------------------|
A|-----3---/7-5-/7-3-/7-5-|
E|-3-5---3----------------|

pre-chorus - play with chords
                         |-build up to chorus
G|-------------------|-------|
D|-------------------|-------|
A|-3-5---/7-5-3-/7-5-|-55555-|
E|-----3-------------|-------|

chorus - play with chords

G|------------------------|
D|------------------------|
A|--3-/5-/5-------/3-/5---|
E|---------/3-0-/3--------| - double up on some of them (every 2nd one)

after chorus (2:33)

G|----------------------------------------| x2
D|----------------------------------------|
A|--------/5555-55------3-5-3-------3-5-3-|
E|-333333---------3333--------33333-------| -add in more notes where needed

bridge (2:53)

G|-------------------------------------------------|
D|-------------------------------------------------|
A|-333333-/555555-----222222-5~-5~-5~-555555-/7777-|
E|----------------3-2------------------------------|

after the bridge play this (3:16)

G|------------------------------|
D|------------------------------|
A|-----3---/7-555-/7-333-/7-555-|
E|-3-5---3----------------------| -play this over and over again

outro - when the vocals cut out play this (3:57)

G|---------| ....fade out (repeat)
D|---------|
A|-----223-|
E|-333-----|

baz: enjoy! 
peace out

W W W . B A S S C R A W L E R . C O M
share this page

See Also: