E-Chords
Everclear

Overwhelming(Bass guitar)

Everclear

roll up this ad to continue

'' (Bass)
As recorded by  on 'Songs From An American Movie Volume Two,
A Good Time For A Bad Attitude'
Tabbed by Ashton Bailey ([email protected]) & Jason Pan ([email protected])

Key:
pm = palm mute
\ = slide up towards the neck
/ = slide down towards the body
fb = feedback
h = hammer
b = bend string
r = ring (let string ring)

Tuning Regular for the original (ie Art's Solo version), and a half step down if you want to play 
along with the new version, but it still sounds close in regular. I will be 
tabbing it in regular tuning.

   Intro - Guitar Only

   Main Verse
G|------------------------------|
D|------------------------------|
A|--3----3-------7----6-5----4--| Repeat
E|---------3---3----------------|
      C      G   E   Eb D    Db

   Break 'I don't wanna be your punching bag'
G|------------------------------------------|
D|------------------------------------------|
A|--3-------------------5-------------------|
E|------------------------------------------|
    C                   D

   'Your complaisant little princess all tragic and sad'
G|------------------------------------------|
D|------------------------------------------|
A|--7----------------3----------------------|
E|------------------------------------------|
    E                C

   'I'm not gonna let you overwhelm me anymore'
G|------------------------------------------|
D|------------------------------------------|
A|--3-------------------5-------------------|
E|------------------------------------------|
    C                   D

   Main Verse
G|------------------------------|
D|------------------------------|
A|--3----3-------7----6-5----4--| Repeat
E|---------3---3----------------|
      C      G   E   Eb D    Db


   Bridge 'I swear your time is gonna come...'
G|-----------------------------|
D|-----------------------------|
A|--3---------7-7-7-6-5-5-5-4--|
E|-----------------------------|
    C           E   Eb  D  Db

   Pre-Chorus 'Oh I don't wanna be your whipping boy, Your pathetic little 
loser...'
G|-------------------------------------------------------------------|
D|-------------------------------------------------------------------|
A|--3-3-3-3-3-3-3-3-----------------5-5-5-5-5-5-5-5-7-7-7-7-7-7-7-7--|
E|------------------3-3-3-3-3-3-3-3----------------------------------|
           C               G               D               E

   'I'm not gonna let you overwhelm me anymore'
G|-----------------------------------|
D|-----------------------------------|
A|--3-3-3-3-3-3-3-3-5-5-5-5-5-5-5-5--|
E|-----------------------------------|
           C              D

   Chorus 'I'm not gonna let you...'
G|----------------------------------------------------|
D|----------------------------------------------------|
A|--3--3----------------------5--5--------7--7--6--5--| Repeat
E|---------------3--3---------------------------------|
      C           G            D            E   D# D

   'I will not let you overwhelm me anymore'
G|----------------------------------------------------|
D|----------------------------------------------------|
A|--3--3----------------------5--5--5--6--7--7--6--5--|
E|---------------3--3---------------------------------|
     C            G              D     D#  E    D# D

   'I will not let you overwhelm me anymore'
G|--------------------------------------------------|
D|--------------------------------------------------|
A|--3--3--x--x--------------5--5--5--6--7--7--6--5--|
E|--------------3--3--x--x--------------------------|


   Interlude 'It can come from out of nowhere....'
G|-----------------------------------|
D|-----------------------------------|
A|--3-3-3-3-3-3-3-3-3-3-3-3-3-3-3-3--|
E|-----------------------------------|
                   C

   'Oh I don't wanna be your simple saving grace'
G|----------------------------------|
D|----------------------------------|
A|--3-3-3-3-3-3-3-3-5-5-5-5-5-5-5-5-|
E|----------------------------------|
           C               D

   'Just another little victim with a happy face'
G|-----------------------------------|
D|-----------------------------------|
A|--7-7-7-7-7-7-7-7------------------|
E|------------------3-3-3-3-3-3-3-3--|
           E               G

   'Someday'
G|-------------------|
D|-------------------|
A|--3-3-3-3-3-3-3-3--|
E|-------------------|
           C

   'Someday soon, somebody's gonna come'
G|-----------------------------------|
D|-----------------------------------|
A|--5-5-5-5-5-5-5-5-7-7-7-7-7-7-7-7--|
E|-----------------------------------|
           D               E

   'I hope they do this to you'
G|-----------------------------------|
D|-----------------------------------|
A|-----------------------------------|
E|--3-3-3-3-3-3-3-3-3-3-3-3-3-3-3-3--|
                   G

   'I'm not gonna let you overwhelm me'
G|----------------------------------|
D|----------------------------------|
A|--3-3-3-3-3-3-3-3-5-5-5-5-5-5-5-5-|
E|----------------------------------|
           C               D

   'I will not let you hurt me anymore'
G|-----------------------------------|
D|-----------------------------------|
A|--5-5-5-5-5-5-5-5-5-5-5-5-5-5-5-5--|
E|-----------------------------------|
                   D

   Outro
G|------------------------------|
D|------------------------------|
A|--3----3-------7----6-5----4--| Repeat
E|---------3---3----------------|
      C      G   E   Eb D    Db

End on C

That should be it.
share this page

See Also: