E-Chords
Everclear

One Hit Wonder(Bass guitar)

Everclear

roll up this ad to continue

'' (Bass)
As Recorded by  on 'So Much For The Afterglow'
Tabbed By Ashton Bailey ([email protected])

Key:
pm = palm mute
\ = slide up towards the neck
/ = slide down towards the body
fb = feedback
h = hammer
b = bend string
r = ring (let string ring)

   Intro (Guitar & Drums only)

   Main Verse
G|-----------------------------------|
D|-----------------------------------|
A|-----------------------------------|
E|--9-9-9-9-9-9-9-9-2-2-2-2-2-2-2-2--|
           Db              F#

First you play the main verse, then you play variation 1,
then you play the main verse again, then you play variation 2

   Main Riff Variation 1
G|-----------------------------------|
D|-----------------------------------|
A|-----------------------------------|
E|--4-4-4-4-2-2-2-2-9-9-9-9-9-9-9-9--|
       Ab      F#          Db

   Main Riff Variation 2
G|-----------------------------------|
D|-----------------------------------|
A|-----------------------------------|
E|--7-7-7-7-4-4-4-4-2-2-2-2-X-X-X-X--|

   Bridge
G|-------------------|
D|-------------------|
A|-------------------| Repeat 4 times
E|--9-9-9-9-9-9-9-9--| The back to Main riff & Variations
          Db

  Outro
G|-------------------|
D|-------------------|
A|-------------------| Repeat a few times then
E|--9-9-9-9-9-9-9-9--| go to the outro riff
          Db

  Outro Riff
G|--9-9-9-9-9-9-9-13~--|
D|---------------------| Repeat & Fade
A|---------------------|
E|---------------------|

That should be everything
share this page

See Also: