E-Chords
Everclear

Loser Makes Good(Bass guitar)

Everclear

roll up this ad to continue

'' (Bass)
As recorded by  on 'World of Noise'
Tabbed by Ashton Bailey ([email protected])

Intro
G|-------------------------------|
D|-------------------------------|
A|--3-----------------3----------|
E|-----------3----------------3--|
    C        G        C       G

G|-------------------------------|
D|-------------------------------|
A|--3-----------------3----------|
E|-----------3----------------3--|
    C        G        C       G
    I hate waking up, it means that I have to die again tonight

G|-------------------------------|
D|-------------------------------|
A|-------------------------------|
E|--1-------0--------1--------0--|
    F       Em       F       Em
   35 years old and I'm still sleeping outside

G|-------------------------------|
D|-------------------------------|
A|--3-----------------3----------|
E|-----------3----------------3--|
    C        G        C       G
   Yeah I think I know your face, I don't want to know your name

G|------------------------------------------------|
D|------------------------------------------------|
A|------------------------------------------------|
E|--1-------0--------1--------0--------1-------0--|
    F       Em       F        Em       F       Em
   I won't give in, I'm not like that, I won't give in

Main Verse
G|-----------------------------------|
D|-----------------------------------|
A|--3-3-3-3---------3-3-3-3----------|
E|----------3-3-3-3---------3-3-3-3--|
       C       G       C       G

G|-----------------------------------|
D|-----------------------------------|
A|--3-3-3-3---------3-3-3-3----------|
E|----------3-3-3-3---------3-3-3-3--|
       C       G       C       G

G|-------------------------------|
D|-------------------------------|
A|--3-----------------3----------|
E|-----------3----------------3--|
    C        G        C       G
     You say it's Christmas Eve, that don't mean nothing to me

G|-------------------------------|
D|-------------------------------|
A|-------------------------------|
E|--1-------0--------1--------0--|
    F       Em       F       Em
     Just another ***ed up day, just another waste of time

G|-------------------------------|
D|-------------------------------|
A|--3-----------------3----------|
E|-----------3----------------3--|
    C        G        C       G
    You wonder why I live like this, man you just won't understand

G|-------------------------------------------------------|
D|-------------------------------------------------------|
A|-------------------------------------------------------|
E|--1--------0--------1--------0--------1-------4-4-4-4--|
      F       Em       F       Em       F        Ab
    I won't give in, I'm not like that, yeah I won't give in

Chorus
G|----------------------------------|
D|----------------------------------|
A|--3--3-3-3-------5--5-5-5---------|
E|-------------4--------------1--1--|
        C      Ab     D         F

G|----------------------------------|
D|----------------------------------|
A|--3--3-3-3-------5--5-5-5---------|
E|-------------4--------------1--1--|
        C      Ab     D         F

G|--------------------------------------------------------|
D|--------------------------------------------------------|
A|--3--3--3--------5--5--5--------8--8--8-----------------|
E|------------------------------------------------4----3--|
       C              D              F           Ab    G

Main Verse
G|-----------------------------------|
D|-----------------------------------|
A|--3-3-3-3---------3-3-3-3----------|
E|----------3-3-3-3---------3-3-3-3--|
       C       G       C       G

G|-----------------------------------|
D|-----------------------------------|
A|--3-3-3-3---------3-3-3-3----------|
E|----------3-3-3-3---------3-3-3-3--|
       C       G       C       G

G|-------------------|
D|-------------------|
A|--3-3-3-3----------|
E|----------3-3-3-3--|
       C       G
  You smart-ass college ***

G|-------------------|
D|-------------------|
A|--3-3-3-3----------|
E|----------3-3-3-3--|
       C       G
  Act like you think you're tall

G|-------------------|
D|-------------------|
A|-------------------|
E|--1-1-1-1-0-0-0-0--|
       F       Em

   I was just like you
G|-------------------|
D|-------------------|
A|-------------------|
E|--1-1-1-1-0-0-0-0--|
       F       Em

More Pride than you could know

G|-------------------|
D|-------------------|
A|--3-3-3-3----------|
E|----------3-3-3-3--|
       C       G
    You think you pity me

G|-------------------|
D|-------------------|
A|--3-3-3-3----------|
E|----------3-3-3-3--|
       C       G
   Hey I'll kick your ass if you pity me

G|-------------------|
D|-------------------|
A|-------------------|
E|--1-1-1-1-0-0-0-0--|
       F       Em
    I won't give in

G|-------------------|
D|-------------------|
A|-------------------|
E|--1-1-1-1-0-0-0-0--|
       F       Em
     I'm not like that

G|-------------------|
D|-------------------|
A|-------------------|
E|--1-1-1-1-4-4-4-4--|
       F       Ab
No I won't give in to you


Chorus
G|----------------------------------|
D|----------------------------------|
A|--3--3-3-3-------5--5-5-5---------|
E|-------------4--------------1--1--|
        C      Ab     D         F

G|----------------------------------|
D|----------------------------------|
A|--3--3-3-3-------5--5-5-5---------|
E|-------------4--------------1--1--|
        C      Ab     D         F

G|----------------------------------|
D|----------------------------------|
A|--3--3-3-3-------5--5-5-5---------|
E|-------------4--------------1--1--|
        C      Ab     D         F

G|--------------------------------------------------------|
D|--------------------------------------------------------|
A|--3--3--3--------5--5--5--------8--8--8-----------------|
E|------------------------------------------------4----3--|
       C              D              F           Ab    G

Outro
G|-----------------------------------|
D|-----------------------------------|
A|--3-3-3-3---------3-3-3-3----------|
E|----------3-3-3-3---------3-3-3-3--|
       C       G       C       G

G|-----------------------------------|
D|-----------------------------------|
A|--3-3-3-3---------3-3-3-3----------|
E|----------3-3-3-3---------3-3-3-3--|
       C       G       C       G
    Just go away             Just go away

G|--------------------|
D|--------------------|
A|--3-----------------|
E|-----------3--------|
    C        G

G|--------------------|
D|--------------------|
A|--3-----------------|
E|-----------3--------|
    C        G
       You stupid college boy

G|--------------------|
D|--------------------|
A|--------------------|
E|--1--------0--------|
    F       Em
   act like you think you're tall

G|--------------------|
D|--------------------|
A|--------------------|
E|--1--------0--------|
    F       Em
   I won't give in, I'm not like that

G|---------------|
D|---------------|
A|---------------|
E|--1--------4~--|
    F        Ab
  I won't give in
share this page

See Also: