E-Chords
Everclear

I Will Buy You A New Life(Bass guitar)

Everclear

roll up this ad to continue

 (Bass)
As recorded by  on 'So Much for the Afterglow'
Tabbed by Ashton Bailey ([email protected])

   Intro/ Bridge Riff
    V V V V ^ V V       V V V V ^ V V
G|-------------------------------------|
D|-------------------------------------|
A|-------------------------------------|
E|--3-3-3-3-3-3-3-------3-3-3-3-3-3-3--|
          G                   G
                   Ohh

     V V V V ^ V V       V V V V ^ V V
G|-------------------------------------|
D|-------------------------------------|
A|-------------------------------------|
E|--3-3-3-3-3-3-3-------3-3-3-3-3-3-3--|
          G                   G
                 Yeah

Main Verse 1
G|--------------------------------------|
D|--------------------------------------|
A|-----------2-2-2-2-----------2-2-2-2--|
E|--3-3-3-3-----------3-3-3-3-----------|
       G       B7        G        B7

G|-----------------------------|
D|-----------------------------|
A|-----------2-2-2-2--3-3-3-3--|
E|--3-3-3-3--------------------|
       G       B7        C     

Chorus
G|--------------------------------------|
D|--------------------------------------|
A|-----------2-2-2-2-----------3-3-3-3--|
E|--3-3-3-3-----------0-0-0-0-----------|
       B        B7       Em       C
share this page

See Also: