E-Chords
Everclear

Happy Hour(Bass guitar)

Everclear

roll up this ad to continue

'' (Bass)
As Recorded by  on the 'Heartspark Dollarsign' Single
Tabbed By Ashton Bailey ([email protected])

Key:
pm = palm mute
\ = slide up towards the neck
/ = slide down towards the body
fb = feedback
h = hammer
b = bend string
r = ring (let string ring)
p = pull off

   Intro
G|-------------------------|
D|-------------------------|
A|------4-4-4-7-7-7-5-5-5--| Repeat 8 times
E|--5-5--------------------| Then Pre Chorus
     A   Db     E     D

   Pre Chorus
G|-------|
D|-------|
A|-------|
E|--2-2--|
    F#

G|-------------------------|
D|-------------------------|
A|------4-4-4-7-7-7-5-5-5--| Repeat 8 times
E|--5-5--------------------| Then Pre Chorus 2
     A   Db     E     D

   Pre Chorus 2
G|-------------------------------|
D|-------------------------------|
A|-------------------------------|
E|--2-2-2-2-2-2-2-2-0-0-0-0-0-0--|
           F#            Em

   Main Verse
G|-------------------------|
D|-------------------------|
A|------4-4-4-7-7-7-5-5-5--| Repeat 10 times
E|--5-5--------------------| Then Chorus
     A   Db     E     D

   Chorus
G|---------------------------------------------------|
D|---------------------------------------------------|
A|----------------------------------5-5-5-5-4-X-4-X--|
E|--2-2-2-2-2-2-2-2-0-0-0-0-0-0-0-0------------------|
           F#            Em            D    Db  Db

   Bridge
G|------------------------------------------------------|
D|------------------------------------------------------|
A|------------------------------------------------------|
E|--5-5----------5-5----------5-5----------5-5----------|
     A            A            A            A

   Main Verse
G|-------------------------|
D|-------------------------|
A|------4-4-4-7-7-7-5-5-5--| Repeat 10 times
E|--5-5--------------------| Then Chorus
     A   Db     E     D

   Chorus
G|---------------------------------------------------|
D|---------------------------------------------------|
A|----------------------------------5-5-5-5-4-X-4-X--|
E|--2-2-2-2-2-2-2-2-0-0-0-0-0-0-0-0------------------|
           F#            Em            D    Db  Db

   Bridge
G|------------------------------------------------------|
D|------------------------------------------------------|
A|------------------------------------------------------|
E|--5-5----------5-5----------5-5----------5-5----------|
     A            A            A            A

   Outro
G|-------------------------|
D|-------------------------|
A|------4-4-4-7-7-7-5-5-5--| Repeat 4 times
E|--5-5--------------------| Then end on A
     A   Db     E     D
share this page

See Also: