E-Chords
Everclear

Buy A New Life(Bass guitar)

Everclear

roll up this ad to continue

'I Will Buy You A New Life'- 
  

Return to Music X

Music X Bass Tab

    
'I Will Buy You A New Life'- Everclear
Tabbed by ghandi.

    

Hey i know that somebody already tried to tab this but theirs is wrong, heres the right version.

notation: (i think theres only slides in this)
/ = Slide

example:   3/7      slide from 3rd fret to the 7th fret

G-------------|----------|
D-------------|----------|
A-------------|----------|
E-333-33-33---|-333-333--|
G------------------------------------|\
D------------------------------------| \Verse
A-------22-20-------2222-3333-3/7-3--| /
E-333-3--------3333------------------|/
\___x2_______/

G-------------------------------------|\
D-------------------------------------| \Verse (continued)
A-------22-20-------2222-3333-3-3-----| /
E-333-3--------3333-------------------|/
\___x2_______/

G--------------------------------------------|\
D--------------------------------------------| \Chorus
A------2222------3333---------2222-3333-3333-| /
E-3333------0000---------3333----------------|/
\________x3___________/
share this page

See Also: