E-Chords
Ennio Morricone

Tema Italiano(Bass guitar)

Ennio Morricone

roll up this ad to continue

Verse 
G|--------------------|--------------------|--------------------|--------------------| 
D|-7---------7--------|-9---------9--------|-5----5-------------|-7---------7----7---| 
A|------7---------7---|------7---------7---|-----------7----7---|------7-------------| 
E|--------------------|--------------------|--------------------|--------------------| 

G|--------------------|--------------------|--------------------|--------------------| 
D|------7---------7---|------7---------7---|-6---------6--------|------9-------------| 
A|-5---------5--------|-5---------5--------|------8---------8---|-7---------7----7---| 
E|--------------------|--------------------|--------------------|--------------------| 

G|--------------------|--------------------|--------------------|--------------------| 
D|-7---------7--------|------4-------------|------9-------------|-7---------7--------| 
A|------7---------7---|-6---------6----6---|-7---------7----7---|------7---------7---| 
E|--------------------|--------------------|--------------------|--------------------| 

G|--------------------|--------------------|--------------------|--------------------| 
D|------7---------7---|-6---------6--------|------9-------------|-7---------7--------| 
A|-5---------5--------|------8---------8---|-7---------7----7---|------7---------7---| 
E|--------------------|--------------------|--------------------|--------------------| 

Outro 
G|--------------------|--------------------|--------------------|--| 
D|------4-------------|------9-------------|-7---------7--------|-7| 
A|-6---------6----6---|-7---------7----7---|------7---------7---|--| 
E|--------------------|--------------------|--------------------|--| 
share this page

See Also: