E-Chords
Ennio Morricone

Stanchezza(Bass guitar)

Ennio Morricone

roll up this ad to continue

Verse 
G|--------------------|--------------------|--------------------|--------------------| 
D|------8---------8---|------8---------8---|------8---------8---|-----------8--------| 
A|-6---------8--------|-6---------8--------|-6---------8--------|-6----6---------6---| 
E|--------------------|--------------------|--------------------|--------------------| 

G|--------------------|--------------------|--------------------|--------------------| 
D|-6---------8--------|-6---------8--------|-6---------8--------|-6---------8--------| 
A|------6---------6---|------6---------6---|------6---------6---|------6---------6---| 
E|--------------------|--------------------|--------------------|--------------------| 

G|--------------------|---------------------| 
D|--------------------|-8--------------8--7-| 
A|-----------8----8---|-----------8---------| 
E|-8----8-------------|------8--------------| 

Outro 
G|--------------------|--------------------|------------| 
D|------8---------8---|------8---------8---|------8-----| 
A|-6---------8--------|-6---------8--------|-6---------6| 
E|--------------------|--------------------|------------| 
share this page

See Also: