E-Chords
Ennio Morricone

Qui Ci Scappa Il Morto(Bass guitar)

Ennio Morricone

roll up this ad to continue

verse 1  00:01-02:03 

  7/4                                                 
G|--------------|--------------|--------------|--------------| 
D|--------------|--------------|--------------|--------------| 
A|14------------|13------------|12------------|11------------|  
E|--15-12-------|--14-11-------|--13-10-------|--12-9--------|  


  7/4                                                              x 4 
G|--------------|--------------|--------------|--------------| 
D|--------------|--------------|--------------|--------------| 
A|10------------|9-------------|8-------------|7-------------|  
E|--11-8--------|--10-7--------|--9-6---------|--8-5---------|  



 Bridge 02:04-02:16 

  7/4                                                 
G|--------------|--------------|--------------|--------------| 
D|--------------|--------------|--------------|--------------| 
A|14------------|13------------|12------------|11------------|  
E|--15-12-------|--14-11-------|--13-10-------|--12-9--------|  



 verse 2  03:16-end 

  7/4                                                 
G|--------------|--------------|--------------|--------------| 
D|--------------|--------------|--------------|--------------| 
A|14------------|13------------|12------------|11------------|  
E|--15-12-------|--14-11-------|--13-10-------|--12-9--------|  


  7/4                                                              x 1 
G|--------------|--------------|--------------|--------------| 
D|--------------|--------------|--------------|--------------| 
A|10------------|9-------------|8-------------|7-------------|  
E|--11-8--------|--10-7--------|--9-6---------|--8-5---------| 
share this page

See Also: