E-Chords
Ennio Morricone

Pensiero Stupendo(Bass guitar)

Ennio Morricone

roll up this ad to continue

Part 1 
G|--------------|--------------|--------------|---------------| 
D|--------------|-5------5-----|--------------|------------3--| 
A|-5------5-----|--------------|-3------3-----|-3------3------| 
E|--------------|--------------|--------------|---------------| 

G|--------3-----|--------------|--------------|---------------| 
D|--------------|-1------1-----|-6------6-----|-6------6------| 
A|-1------------|--------------|--------------|------------4--| 
E|--------------|--------------|--------------|---------------| 

G|---------------|---------------|--------------|--------3-----|-2------------| 
D|-4------3------|-1----------6--|-----------3--|--------------|--------0-----| 
A|------------1--|--------6------|-4------3-----|-1------------|--------------| 
E|---------------|---------------|--------------|--------------|--------------| 

G|--------2-----|-4------5-----|---------------|--------------| 
D|-5------------|--------------|-3------3------|-2------2-----| 
A|--------------|--------------|------------2--|--------------| 
E|--------------|--------------|---------------|--------------| 

G|-2------------|--------------|---------------| 
D|--------0-----|-5------5-----|--------7------| 
A|--------------|--------------|-7----------0--| 
E|--------------|--------------|---------------| 

Part 2 
G|--------------|--------------|--------------|---------------| 
D|--------------|-5------5-----|--------------|------------3--| 
A|-5------5-----|--------------|-3------3-----|-3------3------| 
E|--------------|--------------|--------------|---------------| 

G|--------3-----|--------------|--------------|---------------| 
D|--------------|-1------1-----|-6------6-----|-6------6------| 
A|-1------------|--------------|--------------|------------4--| 
E|--------------|--------------|--------------|---------------| 

G|---------------|---------------|--------------|--------3-----|-2------------| 
D|-4------3------|-1----------6--|-----------3--|--------------|--------0-----| 
A|------------1--|--------6------|-4------3-----|-1------------|--------------| 
E|---------------|---------------|--------------|--------------|--------------| 

G|--------2-----|-4------5-----|---------------|--------------| 
D|-5------------|--------------|-3------3------|-2------2-----| 
A|--------------|--------------|------------2--|--------------| 
E|--------------|--------------|---------------|--------------| 

Outro 
G|-2------------|--| 
D|--------0-----|-5| 
A|--------------|--| 
E|--------------|--| 
share this page

See Also: