E-Chords
Ennio Morricone

Il PingŘino(Bass guitar)

Ennio Morricone

roll up this ad to continue

Intro 
G|---------------------------| 
D|-7---7----7---7----7---7---| 
A|--------7--------7--------7| 
E|---------------------------| 

verse 1 
G|------------------|------------------------|--------------|----------------------------| 
D|-7---7----7---7---|-7---7----7---7----7-8-9|-----9----9---|----------------------------| 
A|--------7--------7|--------7--------7------|-7------7----7|-----9----9-------9----9----| 
E|------------------|------------------------|--------------|-7------7-----7------7---7-6| 

G|------------|-------------|-------------|----------------------------| 
D|------------|---------7---|-------------|----------------------------| 
A|---------7--|-5-----5----5|-7-------7--8|-9---9----9---9----9---9---9| 
E|-5-----5----|-------------|-------7-----|--------9--------9-------9--| 

G|-----------------|-------------------|---------------------------|---------------------------| 
D|-----------------|-------------------|---------------------------|---------------------------| 
A|-10--------10--11|-12--------12------|---------9-------------7---|-5---5----5---5----5------5| 
E|--------10-------|--------12----12-10|-7-----7---7-6-5-----5----5|--------5--------5------5--| 

verse 2 
G|----------------|----------------------|--------------|---------------------------| 
D|-7-------7------|-7-------7-------7-8-9|-----9----9---|---------------------------| 
A|-------7-------7|-------7-------7------|-7------7----7|-----9----9-----------9----| 
E|----------------|----------------------|--------------|-7------7-----7-----7---7-6| 

G|-------------|-------------|-------------|----------------------------| 
D|---------7---|---------7---|-------------|----------------------------| 
A|-------------|-5-----5----5|-7-------7--8|-9---9----9---9----9---9---9| 
E|-5-----5----5|-------------|-------7-----|--------9--------9-------9--| 

G|-----------------|-------------------|-----------------|------------| 
D|-----------------|-------------------|-----------------|------------| 
A|-10--------10--11|-12--------12-12-11|-10--------10----|------------| 
E|--------10-------|--------12---------|--------10-----10|-5-----5-7--| 

G|------------|------------|--------------------------| 
D|------------|------------|---------7---7----7---7---| 
A|------------|-9---------7|----------------7--------7| 
E|-9-----9-9--|-----7------|-5-----5------------------| 

verse 3 
G|-----------------|------------------|-------------|--------------------| 
D|-7-------7---7---|-7---7----7---7---|-7---7---7---|-7----7---7----7-8-9| 
A|-------7--------7|--------7--------7|------------7|----7--------7------| 
E|-----------------|------------------|-------------|--------------------| 

G|--------------|---------------------------| 
D|-----9----9---|---------------------------| 
A|-7------7----7|-----9----9-------9---9----| 
E|--------------|-7------7-----7---------7-6| 

G|------------|--------------|-------------|----------------------------| 
D|------------|---------7----|-------------|----------------------------| 
A|------------|-5-----5---5-6|-7-------7--8|-9---9----9---9----9---9---9| 
E|-5-----5-5--|--------------|-------7-----|--------9--------9-------9--| 

G|-----------------|-------------------|--------------------------|---------------------------| 
D|-----------------|-------------------|--------------------------|---------------------------| 
A|-10--------10--11|-12--------12------|---------9------------7---|-5---5----5---5---5----5--7| 
E|--------10-------|--------12----12-10|-7-----7----7-5-----5----5|--------5------------5-----| 

verse 4 
G|------------------|------------------------|---------------|--------------------------| 
D|-7---7----7---7---|-7---7----7---7----7-8-9|-----9----9----|--------------------------| 
A|--------7--------7|--------7--------7------|-7------7---7-5|-----9----9-----------9---| 
E|------------------|------------------------|---------------|-7------7-----7-----7----7| 

G|--------------|-------------|--------------|----------------------------| 
D|-7-------7----|-------------|--------------|----------------------------| 
A|-------7---7-6|-5-----5----5|-7---7----7--8|-9---9----9---9----9---9---9| 
E|--------------|---------5---|--------7-----|--------9--------9-------9--| 

G|-----------------|-------------------|-----------------|--------------|-------------------------| 
D|-----------------|-------------------|-----------------|--------------|-------------------------| 
A|-10--------10--11|-12--------12-12-11|-10--------10--11|-12-----12----|---------9------------7--| 
E|--------10-------|--------12---------|--------10-------|-----------7--|-9-----9----9-7-----7----| 

G|-----------------|------------------|-------------------| 
D|-7-------7---7---|-7---7----7---7---|-7---7---7----7----| 
A|-------7--------7|--------7--------7|------------7---7--| 
E|-----------------|------------------|------------------5| 

Outro 
G|-----------------|-----------------------|-------------|--------------------------|--| 
D|-7-------7---7---|-7---7----7-------7-8-9|-------9-----|--------------------------|--| 
A|-------7--------7|--------7-------7------|-7-------7--5|-------9-------------9----|--| 
E|-----------------|-----------------------|-------------|-7-------7---7-----7---7-6|-5| 
share this page

See Also: