E-Chords
Ennio Morricone

Giochi Particolari - Untitled(Bass guitar)

Ennio Morricone

roll up this ad to continue

 Main riff - the whole song   
  
G|----------------|----------------|----------------|----------------| 
D|----------------|----------------|----------------|----------------| 
A|----------------|----------------|----------------|----------------|  
E|12----------8---|10----------5---|12----------8---|10--------------| 



G|----------------|----------------|----------------|----------------| 
D|----------------|----------------|----------------|----------------| 
A|----------------|----------------|----------------|----------------|  
E|10----------5---|8-----------5---|10----------5---|8---------------| 


G|----------------|----------------|----------------|----------------| 
D|----------------|----------------|----------------|----------------| 
A|----------------|----------------|----------------|----------------|  
E|8-----------5---|7-----------0---|8-----------5---|7---------------| 
   

G|----------------|----------------|----------------|----------------| 
D|----------------|----------------|----------------|----------------| 
A|----------------|----------------|----------------|----------------|  
E|5-----------0---|3-----------0---|5-----------3---|0---------------| 



Main riff played x 10 
share this page

See Also: