E-Chords
Electric Light Orchestra

Train Of Gold(Bass guitar)

Electric Light Orchestra

roll up this ad to continue

Intro                                                 starts at 0:15 

G|----------------|----------------|----------------|----------------| 
D|----------------|----------------|----------------|----------------| 
A|--------3-3-5-5-|--------3-3-5-5-|--------3-3-5-5-|--------3-3-5-5-| 
E|3-3-6-6---------|3-3-6-6---------|3-3-6-6---------|3-3-6-6---------| 


Verse 

G|----------------|----------------|----------------|----------------| 
D|----------------|----------------|--------3-3-5-5-|--------3-3-5-5-| 
A|--------3-3-5-5-|--------3-3-5-5-|3-3-6-6---------|3-3-6-6---------| 
E|3-3-6-6---------|3-3-6-6---------|----------------|----------------| 

G|----------------|----------------|----------------|----------------| 
D|----------------|----------------|--------3-3-5-5-|--------3-3-5-5-| 
A|--------3-3-5-5-|--------3-3-5-5-|3-3-6-6---------|3-3-6-6---------| 
E|3-3-6-6---------|3-3-6-6---------|----------------|----------------| 

G|----------------|----------------|----------------|----------------| 
D|----------------|----------------|----------------|----------------| 
A|6-6--6--6-6---6-|5-5--5--5-5---5-|--------3-3-5-5-|--------3-3-5-5-| 
E|----------------|----------------|3-3-6-6---------|3-3-6-6---------| 


Verse 

G|----------------|----------------|----------------|----------------| 
D|----------------|----------------|--------3-3-5-5-|--------3-3-5-5-| 
A|--------3-3-5-5-|--------3-3-5-5-|3-3-6-6---------|3-3-6-6---------| 
E|3-3-6-6---------|3-3-6-6---------|----------------|----------------| 

G|----------------|----------------|----------------|----------------| 
D|----------------|----------------|--------3-3-5-5-|--------3-3-5-5-| 
A|--------3-3-5-5-|--------3-3-5-5-|3-3-6-6---------|3-3-6-6---------| 
E|3-3-6-6---------|3-3-6-6---------|----------------|----------------| 

G|----------------|----------------|----------------|----------------| 
D|----------------|----------------|----------------|----------------| 
A|6-6--6--6-6---6-|5-5--5--5-5---5-|--------3-3-5-5-|--------3-3-5-5-| 
E|----------------|----------------|3-3-6-6---------|3-3-6-6---------| 


Chorus 

G|----------------|---------------|----------------|----------------| 
D|----------------|---------------|----------------|----------------| 
A|3-3-----3-3-----|3-3-----3--3-4-|5-5-----5-5-----|5-5-----5-5-5/7\| 
E|-----3--------3-|-----3---------|-----5--------5-|-----5----------| 

G|----------|----------|----------|----------------| 
D|----------|----------|----------|----------------| 
A|3---3-3--3|6---6-6--6|5---5-5--5|----------------| 
E|----------|----------|----------|3~--------------| 


Verse 

G|----------------|----------------|----------------|----------------| 
D|----------------|----------------|--------3-3-5-5-|--------3-3-5-5-| 
A|--------3-3-5-5-|--------3-3-5-5-|3-3-6-6---------|3-3-6-6---------| 
E|3-3-6-6---------|3-3-6-6---------|----------------|----------------| 

G|----------------|----------------|----------------|----------------| 
D|----------------|----------------|--------3-3-5-5-|--------3-3-5-5-| 
A|--------3-3-5-5-|--------3-3-5-5-|3-3-6-6---------|3-3-6-6---------| 
E|3-3-6-6---------|3-3-6-6---------|----------------|----------------| 

G|----------------|----------------|----------------|----------------| 
D|----------------|----------------|----------------|----------------| 
A|6-6--6--6-6---6-|5-5--5--5-5---5-|--------3-3-5-5-|--------3-3-5-5-| 
E|----------------|----------------|3-3-6-6---------|3-3-6-6---------| 


Guitar Solo                                           starts at 2:05 

G|----------------|----------------|----------------|----------------| 
D|----------------|----------------|--------3-3-5-5-|--------3-3-5-5-| 
A|--------3-3-5-5-|--------3-3-5-5-|3-3-6-6---------|3-3-6-6---------| 
E|3-3-6-6---------|3-3-6-6---------|----------------|----------------| 

G|----------------|----------------|----------------|----------------| 
D|----------------|----------------|--------3-3-5-5-|--------3-3-5-5-| 
A|--------3-3-5-5-|--------3-3-5-5-|3-3-6-6---------|3-3-6-6---------| 
E|3-3-6-6---------|3-3-6-6---------|----------------|----------------| 

G|----------------|----------------|----------------|----------------| 
D|----------------|----------------|----------------|----------------| 
A|6-6--6--6-6---6-|5-5--5--5-5---5-|--------3-3-5-5-|--------3-3-5-5-| 
E|----------------|----------------|3-3-6-6---------|3-3-6-6---------| 


Chorus 

G|----------------|---------------|----------------|----------------| 
D|----------------|---------------|----------------|----------------| 
A|3-3-----3-3-----|3-3-----3--3-4-|5-5-----5-5-----|5-5-----5-5-5/7\| 
E|-----3--------3-|-----3---------|-----5--------5-|-----5----------| 

G|----------|----------|----------|----------------| 
D|----------|----------|----------|----------------| 
A|3---3-3--3|6---6-6--6|5---5-5--5|----------------| 
E|----------|----------|----------|3~--------------| 

G|----------------|---------------|----------------|----------------| 
D|----------------|---------------|----------------|----------------| 
A|3-3-----3-3-----|3-3-----3--3-4-|5-5-----5-5-----|5-5-----5-5-5/7\| 
E|-----3--------3-|-----3---------|-----5--------5-|-----5----------| 

G|----------|----------|----------|----------------| 
D|----------|----------|----------|----------------| 
A|3---3-3--3|6---6-6--6|5---5-5--5|----------------| 
E|----------|----------|----------|3~--------------| 


Outro                                           repeat till song end 


G|----------------|----------------|----------------|----------------| 
D|----------------|----------------|----------------|----------------| 
A|6-6--6--6-6---6-|5-5--5--5-5---5-|--------3-3-5-5-|--------3-3-5-5-| 
E|----------------|----------------|3-3-6-6---------|3-3-6-6---------| 

G|----------------|----------------|----------------|----------------| 
D|----------------|----------------|----------------|----------------| 
A|6-6--6--6-6---6-|5-5--5--5-5---5-|--------3-3-5-5-|--------3-3-5-5-| 
E|----------------|----------------|3-3-6-6---------|3-3-6-6---------| 

************************************ 


| /   Slide up 
| \   Slide down 
| ~   Vibrato 


************************************ 
share this page

See Also: