E-Chords
Electric Light Orchestra

Down Came The Rain(Bass guitar)

Electric Light Orchestra

roll up this ad to continue

Intro: 
G|-----------------------------------------------------------------------| 
D|-----------------------------------------------------------------------| 
A|-3-3-3-3-3-3-3-3---3-3-3-3-3-3-3-3---0-0-0-0-0-0-0-0---0-0-0-0-0-0-0-0-| 
E|-----------------------------------------------------------------------| 

G|-----------------------------------------------------------------------| 
D|-----------------------------------------------------------------------| 
A|-----------------------------------------------------------------------| 
E|-1-1-1-1-1-1-1-1---1-1-1-1-1-1-1-1---5-5-5-5-5-5-5-4---3-3-3-3-3-3-3-3-| 

verse 1:  (Play verse 1 x2) 
G|-----------------------------------------------------------------------| 
D|-----------------------------------------------------------------------| 
A|-3-3-3-3-3-3-3-3---3-3-3-3-3-3-3-3---0-0-0-0-0-0-0-0---0-0-0-0-0-0-0-0-| 
E|-----------------------------------------------------------------------| 

G|-----------------------------------------------------------------------| 
D|-----------------------------------------------------------------------| 
A|-----------------------------------------------------------------------| 
E|-1-1-1-1-1-1-1-1---1-1-1-1-1-1-1-1---5-5-5-5-5-5-5-4---3-3-3-3-3-3-3-3-| 

Chorus:                (Play This Bit x3) 
G|-------------------------------------| 
D|-------------------------------------| 
A|-------------------------------------| 
E|-0-0-0-0-0-0-0-0---1-1-1-1---3-3-3-3-| 

G|----------------------------------| 
D|----------------------------------| 
A|-3-3-3-3-3-3-3-3------------------| 
E|------------------3-3-3-3-3-3-3-3-| 

verse 2:  (Play verse 2 x2) 
G|-----------------------------------------------------------------------| 
D|-----------------------------------------------------------------------| 
A|-3-3-3-3-3-3-3-3---3-3-3-3-3-3-3-3---0-0-0-0-0-0-0-0---0-0-0-0-0-0-0-0-| 
E|-----------------------------------------------------------------------| 

G|-----------------------------------------------------------------------| 
D|-----------------------------------------------------------------------| 
A|-----------------------------------------------------------------------| 
E|-1-1-1-1-1-1-1-1---1-1-1-1-1-1-1-1---5-5-5-5-5-5-5-4---3-3-3-3-3-3-3-3-| 

Chorus:                (Play This Bit x3) 
G|-------------------------------------| 
D|-------------------------------------| 
A|-------------------------------------| 
E|-0-0-0-0-0-0-0-0---1-1-1-1---3-3-3-3-| 

G|----------------------------------| 
D|----------------------------------| 
A|-3-3-3-3-3-3-3-3------------------| 
E|------------------3-3-3-3-3-3-3-3-| 

Interlude: 
G|-----------------------------------------------------------------------| 
D|-----------------------------------------------------------------------| 
A|-3-3-3-3-3-3-3-3---3-3-3-3-3-3-3-3---0-0-0-0-0-0-0-0---0-0-0-0-0-0-0-0-| 
E|-----------------------------------------------------------------------| 

G|-----------------------------------------------------------------------| 
D|-----------------------------------------------------------------------| 
A|-----------------------------------------------------------------------| 
E|-1-1-1-1-1-1-1-1---1-1-1-1-1-1-1-1---5-5-5-5-5-5-5-4---3-3-3-3-3-3-3-3-| 

Chorus:                (Play This Bit x3) 
G|-------------------------------------| 
D|-------------------------------------| 
A|-------------------------------------| 
E|-0-0-0-0-0-0-0-0---1-1-1-1---3-3-3-3-| 

G|----------------------------------| 
D|----------------------------------| 
A|-3-3-3-3-3-3-3-3------------------| 
E|------------------3-3-3-3-3-3-3-3-| 

Chorus:                (Play This Bit x3) 
G|-------------------------------------| 
D|-------------------------------------| 
A|-------------------------------------| 
E|-0-0-0-0-0-0-0-0---1-1-1-1---3-3-3-3-| 

G|----------------------------------| 
D|----------------------------------| 
A|-3-3-3-3-3-3-3-3------------------| 
E|------------------3-3-3-3-3-3-3-3-| 

Outro:  (Repeat Outro To Fade/End) 
G|-----------------------------------------------------------------------| 
D|-----------------------------------------------------------------------| 
A|-3-3-3-3-3-3-3-3---3-3-3-3-3-3-3-3---0-0-0-0-0-0-0-0---0-0-0-0-0-0-0-0-| 
E|-----------------------------------------------------------------------| 

G|-----------------------------------------------------------------------| 
D|-----------------------------------------------------------------------| 
A|-----------------------------------------------------------------------| 
E|-1-1-1-1-1-1-1-1---1-1-1-1-1-1-1-1---5-5-5-5-5-5-5-4---3-3-3-3-3-3-3-3-| 
share this page

See Also: