E-Chords
Edgar Winter Group

Frankenstein(Bass guitar)

Edgar Winter Group

roll up this ad to continue

INTRO (and MAIN LICK)  
s e s s s s s e e q s e s s s e h s e s s s s s e e s s e  
||---|---------------------|--------------F--|-------------------------|  
||4:-|-------R---R---------|-------R------I--|-------R---R-------------|  
||4:-|-------------------1-|--------------L--|-------------------1-3-1-|  
||---|-3-3-3---3---1-3-3---|-3-3-3---1-3--L--|-3-3-3---3---1-3-3-------|  
  
s e s s s e+h s s s s+e s s s s s s+e s s e s s e q q+e  
|---------------|-----------------------------|----------------|  
|-------R-------|-----------------------------|----------------|  
|---------------|-----------1---3-1---1---3-1-|-b3-3-1---1-----|  
|-3-3-3---1-3---|-0-1-2-3-----3-----3---------|--------3---3---|  
  
e e e e e e e e s s e e e+h q q q q q q q q q q q q  
|-----------------|-------------|---------|---------|---------|  
|-----0-0-1-1-----|-3-----------|---------|---------|---------|  
|-1-1---------4-5-|---3---------|-3-3-3-3-|-3-3-3-3-|-5-5-5-5-|  
|-----------------|-----1-2-3---|---------|---------|---------|  
  
  
e e e q e e e q q q q e e e e+h q q s e s s e s e e e q e e e  
|---------------|---------|-----------|-----------------|---------------|  
|-----R-------5-|---------|-----------|---------R---R---|---------------|  
|-5-5---5-5-7---|---------|---5-4-3---|-4-4-5-5---5---5-|-6-6-6-7-------|  
|---------------|-3-3-3-3-|-3---------|-----------------|---------0-1-2-|  
  
BRIDGE   
e+s s s s s e s e e e e+s s s s s e s e e e s s e s s s e s e e e  
|-----------------------|-----------------------|-----------------------|  
|-----------------------|-----------------2-3-4-|-5---------------------|  
|-------0-1-2-3-3-------|-------0-1-2-3-3-------|---5---0-1-2-3-3-------|  
|-3---3-----------0-1-2-|-3---3-----------------|-----3-----------0-1-2-|  
  
THE COOL LICK  
s s e e s s s s s s s s s s e s s s e s s s s s+e e  
|------------------------------|-------3---5-----7-10--12--||  
|*---------------------R-----3-|---5-3---5---8-5----------*||  
|*-------------1---3-1---5-3---|-5------------------------*||  
|--1-3-3-3-1-3---3-------------|---------------------------||  
  
DRUM FILL SECTION  
e+s s s s e+h e+s s s e s+h  
|----------------|---------3------||  
|*-5---3-5---R---|-5---3-5---R---*||  
|*---------------|---------------*|| then to Drum Solo...  
|----------3-----|----------------||  

share this page

See Also: