E-Chords
Dishwalla

Once In Awhile(Bass guitar)

Dishwalla

intro/bridge
  

Return to Music X

Music X Bass Tab

    
 ''

intro/bridge
    
g---------------------------------------------
d---------------------------------------------
a---------------------------------------------
e-88-77-55-33-22-11---------------------------

chorus
g---------------------------------------------
d---------------------------------------------
a---------------------------------------------
e-55-33-22------------------------------------

'when you close your eyes'
g---------------------------------------------
d---------------------------------------------
a-33-22-00------------------------------------
e----------33-2-1-----------------------------

main verse
g---------------------------------------------
d---------------------------------------------
a---------0h3-5-3-5---------------------------
e-55-33-22------------------------------------

this is a better version than the previous one
posted.  this one is much closer to being right
 my email's [email protected] so drop me
a line

roll up this ad to continue

share this page

See Also: