E-Chords
Diazepunk

Pensando En Ti(Bass guitar)

Diazepunk

roll up this ad to continue

Key: E
E----------------------------------------------------------------------------- 
B-/10-10-10-8-8-8-7-7-7-------7-7-7-8-8-------------7-7-8-8-8-7-7-7----------- 
G-----------------------9-9-9-----------7-7-7-9-9-9-----------------9-9------- 
D----------------------------------------------------------------------------- 


E----------------------------------------------------------------------------- 
B-8/10--8-7-8-7--10-10/12-10--8/10--8-7-8-7---10-8-7-8-7---------------------- 
G--------------------------------------------------------9-------------------- 
D----------------------------------------------------------------------------- 


E----------------------------------------------------------------------------- 
B-10--8-7-8-7--10-10/12-10--8/10--8-7-8-7---10-10-8-7-8-7--------------------- 
G--------------------------------------------------------9-7------------------ 
D----------------------------------------------------------------------------- 


estrofa (todas) en palm mute: 

E-------------7-----------------10-x-x-10-x-x-10-x-10-x-x-10---/10------------ 
B-8-7-8-7--10---10-8-7----------10-x-x-10-x-x-10-x-10-x-x-10------------------ 
G----------------------------------------------------------------------------- 
D----------------------------------------------------------------------------- 
share this page

See Also: