E-Chords
Desperation band

Fun(Bass guitar)

Desperation band

roll up this ad to continue

verse 1 
G|-------------------------------0------------------------0------------------| 
D|-2-------------3-----------------------------------------------------------| 
A|----------------------------------0----------------------------------------| 
E|---------------------------------------------------------------------------| 
   We've stepped   from darkness to light   In Your grace   we are alive 

G|------------------------0-----------------------------------0--------------| 
D|-2---------3---------------------------------------------------------------| 
A|-----------------------------0---------------------------------------------| 
E|---------------------------------------------------------------------------| 
   Your fire   is burning inside   We're living in Your light   we're living 

G|---------------------------------------------------------------------------| 
D|---------------------------------------------------------------------------| 
A|---------------------------------------------------------------------------| 
E|---------------------------------------------------------------------------| 
   in Your light 

Repeat verse 1 

Pre-Chorus 
G|---------------------------------------------------0-----------------------| 
D|----------2----------------------------3-----------------------------------| 
A|---------------------------------------------------------0-----------------| 
E|---------------------------------------------------------------------------| 
   So we're dancing with every reason to dance now   We're singing with every 

G|-----------0---------------------------------------------------------------| 
D|----------------------------------2-----------------------3----------------| 
A|---------------------------------------------------------------------------| 
E|---------------------------------------------------------------------------| 
   reason to sing out   Your love unfailing, never fails to free us 

G|----------------------------0----------------------------------------------| 
D|---------------------------------------------------------------------------| 
A|---------------0-----------------------------------------------------------| 
E|---------------------------------------------------------------------------| 
   And now we've only just begun 

Chorus 
G|-------------------------------------------------0-------------------------| 
D|----------------------3----------------------------------------------------| 
A|--------------3--------------------------0--------------------------3------| 
E|---------------------------------------3-----------------------------------| 
   We're having fun, oh, oh   We're having fun, oh, oh   We're having fun, 
G|-------------------------------0-------------------------------------------| 
D|----3----------------------------------------------------------------------| 
A|------------------------0--------------------------------------------------| 
E|---------------------3-----------------------------------------------------| 
   oh, oh   We're having fun, oh, oh 

verse 2 
G|-------------------------0-----------------0-------------------------------| 
D|--------3----------------------------------------------------------------3-| 
A|-3---------------------------0-------------------------------3-------------| 
E|---------------------------------------------------------------------------| 
   Jesus, You pull back he night   You have, opened our eyes   We rise up,  

G|--------------0------------------------------0-----------------------------| 
D|---------------------------------------------------------------------------| 
A|----------------0----------------------------------------------------------| 
E|---------------------------------------------------------------------------| 
   and face every lie   We're fearless in your sight 

Repeat Pre-Chorus, Chorus, Pre-Chorus 
Repeat Chorus 2x 
share this page

See Also: