E-Chords
Dark Knight's

One Chance(Bass guitar)

Dark Knight's

One Chance 
(Dark Knight’s) 

INTRO: 
e|----------------------------------- 
B|----------------------------------- 
G|-----------------------------------   4 Vezes 
D|----------------------------------- 
A|14---14---14---5---3--------------- 
E|12---12---12---3---1--------------- 

1º Parte:	 

e|------------------------------------ 
B|------------------------------------ 
D|------------------------------------ 
G|------------------------------------ 
A|9--------7---------10-------5------- 
E|7--------5---------8---------3------ 

I caught my things and I was get away 
I didn´t think about another thing 
Beyond the band 


2º parte: 

 e|-------------------------------- 
B|--------------------------------- 
G|------------11----9-------------- 
D|--7---9----9-----7---7----------- 
A|--5---7---------------5----7----- 
E|-----------------------------5--- 

We delay to touch some good thing  
Beyond only sweating  
Beyond only sweating 

We are worried in not knowing what to play 
Beyond only thinking  
Beyond only thinking 

3º Parte:  


 e|---7---7---7----7----0---5---5----- 
B|---7---9---10---9----0---5---7------ 
G|------------------------------------ 
D|------------------------------------ 
A|------------------------------------ 
E|------------------------------------ 


We only need one chance  
To show our sound. 


FINAL: 


e|------------------------------------- 
B|------------------------------------- 
G|-------------------------------------  8 Vezes  
D|------------------------------------- 
A|--14----14----14---5----3------------ 
E|--12----12----12---3----1------------ 
                                                                                     ( Music By: Casse D.K. and Gabra D.K.) 
                                                                             ( Lyrics By: Casse D.K. and Gabra D.K.)  

roll up this ad to continue

share this page

See Also: