E-Chords
Daft Punk

Phoenix(Bass guitar)

Daft Punk

Intro: (00:00) 
  
G|------------------------| 
D|------------------------| 
A|-2--2--2--2--2--2--2--2-| 
E|------------------------| 
  
Riff 1: (01:24) 
  
G|------------------------| 
D|------------------------| 
A|-0--0--0--0--0--0--0--0-| 
E|------------------------| 
  
Riff (02:25) 
  
G|------------------------------| 
D|-5-5-----4-4------------------| 
A|-----5-5-----5-5--7-7--5-5--0-| 
E|------------------------------| 
  
G|-------------------------------------| 
D|--------5-5-----4-4------------------| 
A|-0-3-5------5-5-----5-5--7-7--5-5--0-| 
E|-------------------------------------| 
  
Riff 1: (03:56) 
  
G|------------------------| 
D|------------------------| 
A|-0--0--0--0--0--0--0--0-| 
E|------------------------| 
  
Riff (04:11) 
  
G|------------------------------| 
D|-5-5-----4-4------------------| 
A|-----5-5-----5-5--7-7--5-5--0-| 
E|------------------------------| 
  
G|-------------------------------------| 
D|--------5-5-----4-4------------------| 
A|-0-3-5------5-5-----5-5--7-7--5-5--0-| 
E|-------------------------------------| 
  
Riff 1: (04:41) 
  
G|------------------------| 
D|------------------------| 
A|-0--0--0--0--0--0--0--0-| 
E|------------------------| 

roll up this ad to continue

share this page

See Also: