E-Chords
Daft Punk

Creshendolls(Bass guitar)

Daft Punk

Whole song 
G|------------------------------| 
D|------------------------------| 
A|---------0--1---2-1-2---3-4---| 
E|-2-2---4----------------------| 


G|-------------------------------------| 
D|----------------------------1-2-3-4--| 
A|---------0--1---2-1-2---3-4----------| 
E|-2-2---4-----------------------------| 

roll up this ad to continue

share this page

See Also: