E-Chords
Daft Punk

Burnin(Bass guitar)

Daft Punk

  
  
Intro (00:01) 
  
G------------------------| 
D------------------------| 
A-1----0-1----1----0-1---| 
E------------------------| 
  
  
Stop at (01:18) 
  
  
Main riff 1 (01:48) 
  
G----------------------------------| 
D-4-4-6-6-7-7-8-8------------------| 
A------------------2-2-4-4-5-5-7-7-| 
E----------------------------------| 
  
  
Stop at (03:11) 
  
  
Main riff 2 (03:30) 
  
G----------------------------------| 
D-2-2-4-4-5-5-7-7------------------| 
A------------------4-4-6-6-7-7-8-8-| 
E----------------------------------| 
  
  
Stop at (04:13) 
  
  
Main riff 1 (04:53) 
  
G----------------------------------| 
D-4-4-6-6-7-7-8-8------------------| 
A------------------2-2-4-4-5-5-7-7-| 
E----------------------------------| 
  
  
Outro (06:09) 
  
G------------------------| 
D------------------------| 
A-1--1--1--1--1--1--1--1-| 
E------------------------| 
  
  
Stop playing at (06:24) 
 

roll up this ad to continue

share this page

See Also: